Green Day - Waiting Chords & Tabs

 

Waiting Chords & Tabs

Green Day Chords & Tabs

Version: 14 Type: Tab 0 ratings
1 star 2 stars 3 stars 4 stars 5 stars
comments

Waiting Tab

my favorite green day song!!
i tabbed the solo for this but my
guitar must of been out of tune at
the time but i if not then i'll just
have this as second choice.

intro(clean)
e|----------------------------------------------------|
B|----------------------------------------------------|
G|--------------6-6-6-6-6-----------------6-6-6-6-6---|
D|-6-6-6-6-6----6-6-6-6-6----8-8-8-8-8----6-6-6-6-6---|x2
A|-6-6-6-6-6----4-4-4-4-4-0--8-8-8-8-8----4-4-4-4-4-0-|
E|-4-4-4-4-4-0---------------6-6-6-6-6-0--------------|

verse
e|----------------------------------------------------|
B|----------------------------------------------------|
G|--------------6-6-6-6-6-----------------6-6-6-6-6---|
D|-6-6-6-6-6----6-6-6-6-6----8-8-8-8-8----6-6-6-6-6---|x4
A|-6-6-6-6-6----4-4-4-4-4-0--8-8-8-8-8----4-4-4-4-4-0-|
E|-4-4-4-4-4-0---------------6-6-6-6-6-0--------------|

chorus
e|-------------------------------------------------------|
B|-------------------------------------------------------|
G|---------------------------8-8-8-8-8-------------------|
D|-3-3-3-3-3-3--2-2-2-2-2-2--8-8-8-8-8--8-8-8-8-8-8-8-8--|
A|-3-3-3-3-3-3--2-2-2-2-2-2--6-6-6-6-6--8-8-8-8-8-8-8-8--|
E|-1-1-1-1-1-1--0-0-0-0-0-0-------------6-6-6-6-6-6-6-6--|

bridge
e|---------------------|
B|---------------------|
G|-6-6-6---------6-6-6-|
D|-6-6-6--6-6-6--6-6-6-|
A|-4-4-4--6-6-6--4-4-4-|
E|--------4-4-4--------|

verse

chorus 

bridge two
e|-------------------------------------|
B|-------------------------------------|
G|-6-6-6---------6-6-6---------6---6---|
D|-6-6-6--6-6-6--6-6-6--6-6-6--6-6-6-6-|x3
A|-4-4-4--6-6-6--4-4-4--6-6-6--4-6-4-6-|
E|--------4-4-4---------4-4-4----4---4-|

e|------------------------------------|
B|------------------------------------|
G|-6-6-6---------6-6-6--8-8-8-8-8-8-8-|
D|-6-6-6--6-6-6--6-6-6--8-8-8-8-8-8-8-|
A|-4-4-4--6-6-6--4-4-4--6-6-6-6-6-6-6-|
E|--------4-4-4-----------------------|
[ Tab from: http://www.guitartabs.cc/tabs/g/green_day/waiting_tab_ver_14.html ]
solo
e|-------------------------------------------------------------4-|
B|----------------------------------------------3---6-3----------|
G|-8/5~--3-5h6-5--8/5~--3-5h6-5--5/1~-3-5h6-5-3---3-----3--1-1---|
D|---------------------------------------------------------------|
A|---------------------------------------------------------------|
E|---------------------------------------------------------------|

chorus solo
e|------8---11-8-------8---11-8-------8---11-8---------|
B|----9---9------9---9---9------9---9---9------9-------|
G|-10--------------9--------------8--------------7~/3~-|
D|-----------------------------------------------------|
A|-----------------------------------------------------|
E|-----------------------------------------------------|

bridge 2

interlude
e|-----4---4--------4---4--------4---4--------4---4---|
B|-----4---4--------4---4--------4---4--------4---4---|
G|-0-0-0-0-0-0--0-0-0-0-0-0---------------0-0-0-0-0-0-|
D|-0-0-0-0-0-0--3-3-3-3-3-3--0-0-0-0-0-0--3-3-3-3-3-3-|x2
A|-3-3-3-3-3-3--4-4-4-4-4-4--5-5-5-5-5-5--4-4-4-4-4-4-|
E|-4-4-4-4-4-4---------------6-6-6-6-6-6--------------|

e|-----4---4--------4---4--------4---4----4~-|
B|-----4---4--------4---4--------4---4----4~-|
G|-0-0-0-0-0-0--0-0-0-0-0-0---------------0~-|
D|-0-0-0-0-0-0--3-3-3-3-3-3--0-0-0-0-0-0--3~-|
A|-3-3-3-3-3-3--4-4-4-4-4-4--5-5-5-5-5-5--4~-|
E|-4-4-4-4-4-4---------------6-6-6-6-6-6-----|

verse

outro
e|----------------------------------------------------|
B|----------------------------------------------------|
G|--------------6-6-6-6-6-----------------6-6-6-6-6---|
D|-6-6-6-6-6----6-6-6-6-6----8-8-8-8-8----6-6-6-6-6---|
A|-6-6-6-6-6----4-4-4-4-4-0--8-8-8-8-8----4-4-4-4-4-0-|
E|-4-4-4-4-4-0---------------6-6-6-6-6-0--------------|

e|-----------------------------------------|
B|-----------------------------------------|
G|--------------6-6-6-6-6---------------6~-|
D|-6-6-6-6-6----6-6-6-6-6----8-8-8-8----6~-|
A|-6-6-6-6-6----4-4-4-4-4-0--8-8-8-8----4~-|
E|-4-4-4-4-4-0---------------6-6-6-6-0-----|

~=let ring
/=slide up
h=hammer on

hope its use to someone
David
Comments