Green Day - Waiting Chords & Tabs

 

Waiting Chords & Tabs

Green Day Chords & Tabs

Version: 12 Type: Tab 0 ratings
1 star 2 stars 3 stars 4 stars 5 stars
comments

Waiting Tab

Band:Green Day
Song:Waiting
Album:International Superhits
this is an awesome song and i'm only 14 and i put it togehter basically myslef


INTRO-CLEAN X 2
e|--------------------------------------|
B|--------------------------------------|
G|-----------777-7-7-----------777-7-7--|
D|--777-7-7--777-7-7--999-9-9--777-7-7--|
A|--777-7-7--555-5-5--999-9-9--555-5-5--|
E|--555-5-5-----------777-7-7-----------|



INTO VERSE-DISTORION
e|-------|
B|-------|
G|--777--|
D|--777--|
A|--555--|
E|-------|

VERSE-DISTORION X 4
e|--------------------------------------|
B|--------------------------------------|
G|-----------777-7-7-----------777-7-7--|
D|--777-7-7--777-7-7--999-9-9--777-7-7--|
A|--777-7-7--555-5-5--999-9-9--555-5-5--|
E|--555-5-5-----------777-7-7-----------|

CHOURS-DISTORION X1
e|-------------------------|
B|-------------------------|
G|-------------------4444--|
D|--4444--4444--2222-4444--|
A|--4444--4444--2222-2222--|
E|--2222--1111--0000-------|

e|-----------------|
B|-----------------|
G|--777-------777--|
D|--777--777--777--|
A|--555--777--777--|
E|-------555-------|



VERSE-DISTORION X 4
e|--------------------------------------|
B|--------------------------------------|
G|-----------777-7-7-----------777-7-7--|
D|--777-7-7--777-7-7--999-9-9--777-7-7--|
A|--777-7-7--555-5-5--999-9-9--555-5-5--|
E|--555-5-5-----------777-7-7-----------|


CHOURS-DISTORION X1
e|-------------------------|
B|-------------------------|
G|-------------------4444--|
D|--4444--4444--2222-4444--|
A|--4444--4444--2222-2222--|
E|--2222--1111--0000-------|

CHOURS CONT.-DISTORTION X3
e|----------------------------------|
B|----------------------------------|
G|--777-------777-------7-----7-----|
D|--777--777--777--777--7--7--7--7--|
A|--555--777--555--777--5--7--5--7--|
E|-------555-------555-----5-----5--|
AFTER THAT-X1
e|-----------------------|
B|-----------------------|
G|--777-------7-----999--|
D|--777--777--7--7--999--|
A|--555--777--5--7--777--|
E|-------555-----5-------|

SOLO
[ Tab from: http://www.guitartabs.cc/tabs/g/green_day/waiting_tab_ver_12.html ]
e|------------------|
B|------------------|
G|--9-6~-4-6-7-6-4--|
D|------------------|
A|------------------|
E|------------------|

e|------------------|
B|------------------|
G|--9-6~-4-6-7-6-4--|
D|------------------|
A|------------------|
E|------------------|

e|----------------------5--|
B|----------------4-7--2---|
G|--6-2~-4-6-7-6-4-4--2----|
D|-------------------------|
A|-------------------------|
E|-------------------------|
 
sorry i couldn't get the chours solo

CHOURS-DISTORION X1
e|-------------------------|
B|-------------------------|
G|-------------------4444--|
D|--4444--4444--2222-4444--|
A|--4444--4444--2222-2222--|
E|--2222--1111--0000-------|

CHOURS CONT.-DISTORTION X3
e|----------------------------------|
B|----------------------------------|
G|--777-------777-------7-----7-----|
D|--777--777--777--777--7--7--7--7--|
A|--555--777--555--777--5--7--5--7--|
E|-------555-------555-----5-----5--|
AFTER THAT-X1
e|-----------------------|
B|-----------------------|
G|--777-------7-----9~~--|
D|--777--777--7--7--9~~--|
A|--555--777--5--7--7~~--|
E|-------555-----5-------|

PRE-VERSE- X2
e|--xxx-x-x--222-2-2-----------222-2-2--|
B|--222-2-2--333-3-3--444-4-4--333-3-3--|
G|--222-2-2--222-2-2--444-4-4--222-2-2--|
D|--222-2-2--000-0-0--444-4-4--000-0-0--|
A|--000-0-0-----------222-2-2-----------|
E|--------------------------------------|

PRE-VERSE CONT.- X1
e|--xxx-x-x--222-2-2-----------2~~--|
B|--222-2-2--333-3-3--444-4-4--3~~--|
G|--222-2-2--222-2-2--444-4-4--2~~--|
D|--222-2-2--000-0-0--444-4-4--0~~--|
A|--000-0-0-----------222-2-2-------|
E|----------------------------------|

VERSE-DISTORION X3
e|--------------------------------------|
B|--------------------------------------|
G|-----------777-7-7-----------777-7-7--|
D|--777-7-7--777-7-7--999-9-9--777-7-7--|
A|--777-7-7--555-5-5--999-9-9--555-5-5--|
E|--555-5-5-----------777-7-7-----------|

OUTRO-DISTORTION X1
e|----------------------------------|
B|----------------------------------|
G|-----------777-7-7-----------7~~--|
D|--777-7-7--777-7-7--999-9-9--7~~--|
A|--777-7-7--555-5-5--999-9-9--5~~--|
E|--555-5-5-----------777-7-7-------|

I hope you like it Its my first tab so enjoy sorry about the second solo
Comments