Green Day - Waiting Chords & Tabs

 

Waiting Chords & Tabs

Green Day Chords & Tabs

Version: 10 Type: Tab 0 ratings
1 star 2 stars 3 stars 4 stars 5 stars
comments

Waiting Tab

This is the guitar for waiting but i'll just put the bass in brakets.
Standard Tuning Intro no distortion

------------------------------------------------------------
------------------------------------------------------------
----------------6-6-6-6-6-----------------6-6-6-6-6---------
---6-6-6-6-6----6-6-6-6-6----8-8-8-8-8----6-6-6-6-6---------
---6-4-6-6-6---(4)4-4-4-4----8-8-8-8-8---(4)4-4-4-4---------
--(4)4-4-4-4----------------(6)6-6-6-6----------------------

You play this until he says 'Downtown'then the verse start with a bit of distortion.

------------------------------------------------------------
------------------------------------------------------------
----------------6----------------------------6--------------
---6------------6-x5 quickly--8--------------6--x5-quickly--
---6-x5slowly--(4)------------8-x5-Slowly---(4)-------------
--(4)------------------------(6)----------------------------

Play this twice and then you play the last power chord slowly instead off quickly.Repeat that 
whole process twice and then the chorus.....
[ Tab from: http://www.guitartabs.cc/tabs/g/green_day/waiting_tab_ver_10.html ]
------------------------------------------------------------
------------------------------------------------------------
--5------4------3-----------6---------------6---------------
--5--x4--4--x4--3---3-------6--x3--6--------6-x3------------
-(3)----(2)----(1)--3-x4---(4)-----6--x3---(4)--------------
-------------------(1)------------(4)-----------------------

I can't be bothered to do any more you should be able to work the rest out heres the solo...


e |-------------------------------------------------------
B |-------------------------------------------------------
G |--8slide5----------------------------------------------
D |----------8-10-11-10-8---------------------------------
A |-------------------------------------------------------
E |-------------------------------------------------------

repeat 2x

e |---------------------------------------------------------
B |------------------------------------------11-------------
G |--------------------------------10-----10----10----------
D |--10slide6---8--10-11-10--8---8-----8-------------8slide6
A |---------------------------------------------------------
E |---------------------------------------------------------

Thanku another geeeereat tab by

El Leggio
Comments