Green Day - Waiting Chords & Tabs

 

Waiting Chords & Tabs

Green Day Chords & Tabs

Version: 3 Type: Bass Tab 0 ratings
1 star 2 stars 3 stars 4 stars 5 stars
comments

Waiting Bass Tab

Intro:
G--------|
D--------|
A--------|
E--555---|

Verse:
G----------------------------------------------------|
D----------------------------------------------------|
A-------------5-5-5-5-5-5---------------5-5-5-5-5-5--|
E-5-5-5-5-5-5-------------7-7-7-7-7-7-7--------------|

Chorus:
G----------------------------------|
D----------------------------------|
A-------------------2222222222-----|
E-2-222-1-111-0-000----------------|

Chorus pt. 2
G--------------
D--------------
A-555---555----
E----555-------
[ Tab from: http://www.guitartabs.cc/tabs/g/green_day/waiting_btab_ver_3.html ]
Chorus Pt. 3
G--------------------------------------------------------------------|
D--------------------------------------------------------------------|
A-555---555---5-5--555---555---5-5-555---555--5-5-555---5-5-77777777-|
E----555---555-5-5----555---555-5-5---555--555-5-5---555-5-----------|

Chorus pt. 4
G----------------------------|
D----------------------------|
A----------------------------| ~ = let note ring
E-2-222-1-111-0-000~---------|

Outro:
G--------------------------------------------------|
D--------------------------------------------------|
A-------------5-5-5-5-5-5-------------5-5-5-5-5-5--|
E-5-5-5-5-5-5-------------7-7-7-7-7-7--------------|

G----------------------------------------|
D----------------------------------------|
A-------------5-5-5-5-5-5------------5~--|
E-5-5-5-5-5-5-------------7-7-7-7-7-7----|

Structure:
Intro
Verse 4x
Chorus pt. 1
Chorus pt. 2
Verse 4x
Chorus pt. 1
Chorus pt. 3
Verse 2x
Chorus pt. 4
Chorus pt. 3
(Guitar solo...)
Verse 2x
Comments