Green Day - Viva La Gloria Little Girl Chords & Tabs

 

Viva La Gloria Little Girl Chords & Tabs

Green Day Chords & Tabs

Version: 2 Type: Tab 0 ratings
1 star 2 stars 3 stars 4 stars 5 stars
comments

Viva La Gloria Little Girl Tab

?Viva La Gloria? - Green Day (Little Girl)

I. Intro Verse
e|------------------------------------------------------------------------|
B|------------------------------------------------------------------------|
G|------------------6-6-6-6-6-6-6-6---------------------------------------|
D|--3-3-3-3-3-3-3-3-6-6-6-6-6-6-6-6-10-10-10-10-10-8-6-5-6-3-3-3-3-3-3-3--|
A|--3-3-3-3-3-3-3-3-4-4-4-4-4-4-4-4-10-10-10-10-10-8-6-5-6-3-3-3-3-3-3-3--|
E|--1-1-1-1-1-1-1-1------------------8--8--8--8--8-6-4-3-4-1-1-1-1-1-1-1--|

e|-------------------------------------------------------------------------------|
B|-------------------------------------------------------------------------------|
G|------------------6-6-6-6-6-6-6-6----------------------------------------------|
D|--3-3-3-3-3-3-3-3-6-6-6-6-6-6-6-6-10-10-10-10-10-10-10-10-10-10-10-10----------|
A|--3-3-3-3-3-3-3-3-4-4-4-4-4-4-4-4-10-10-10-10-10-10-10-10-10-10-10-10----------|
E|--1-1-1-1-1-1-1-1------------------8--8--8--8--8--8--8--8--8--8--8--8-8-6-4-3--|

II. Verse
e|------------------------------------------------------------------------|
B|---7-(x8)-----------------------7-(x40)-----------------------7-(x8)----|
G|--10----------------6--6--6-6--10-----------------6--6--6-6--10---------|
D|-----------3-3--3---6--6--6-6------------3-3--3---6--6--6-6----------\--|
A|-----------3-3--3---4--4--4-4------------3-3--3---4--4--4-4----------\--|
E|-----------1-1--1------------------------1-1--1----------------------\--|

III. Chorus
e|------------------------------------------------------------------------|
B|------------------------------------------------------------------------|
G|------------------6-6-6-6-6-6-6-6---------------------------------------|
D|--3-3-3-3-3-3-3-3-6-6-6-6-6-6-6-6-10-10-10-10-10-8-6-5-6-3-3-3-3-3-3-3--|
A|--3-3-3-3-3-3-3-3-4-4-4-4-4-4-4-4-10-10-10-10-10-8-6-5-6-3-3-3-3-3-3-3--|
E|--1-1-1-1-1-1-1-1------------------8--8--8--8--8-6-4-3-4-1-1-1-1-1-1-1--|
[ Tab from: http://www.guitartabs.cc/tabs/g/green_day/viva_la_gloria_little_girl_tab_ver_2.html ]
e|------------------------------------------------------------------------------------------|
B|------------------------------------------------------------------------------------------|
G|------------------6-6-6-6-6-6-6-6---------------------------------------------------------|
D|--3-3-3-3-3-3-3-3-6-6-6-6-6-6-6-6-10-10-10-10-10-10-10-10-10-10-10-10-10-8-6-5-6-3-(x16)--|
A|--3-3-3-3-3-3-3-3-4-4-4-4-4-4-4-4-10-10-10-10-10-10-10-10-10-10-10-10-10-8-6-5-6-3--------|
E|--1-1-1-1-1-1-1-1------------------8--8--8--8--8--8--8--8--8--8--8--8--8-6-4-3-4-1--------|

IV. Bridge
e|-----------------------------------|    |------------|
B|-----------------------------------| x3 |------------|
G|--6-6-6-6-6-6-6-6------------------|    |------------|
D|--6-6-6-6-6-6-6-6-6-6-6-6-6-6-6-6--|    |--10-(x16)--|
A|--4-4-4-4-4-4-4-4-6-6-6-6-6-6-6-6--|    |--10--------|
E|------------------4-4-4-4-4-4-4-4--|    |---8--------|

V. Solo
e|-------------------------------------------------------------------------------|
B|-------------------------------13----------------------------------------------| x3
G|--10-12-13--12-10-10--10-12-13----12-10-10--10-12-13--12-10-8--8-8-----12--10--|
D|-------------------------------------------------------------------10----------|
A|-------------------------------------------------------------------------------|
E|-------------------------------------------------------------------------------|

e|---------------------------------------------------------------------------------|
B|-------------------------------13---------------------------12b-12b-15b-15b-17b--|
G|--10-12-13--12-10-10--10-12-13----12-10-10--10-12-13--12-10----------------------|
D|---------------------------------------------------------------------------------|
A|---------------------------------------------------------------------------------|
E|---------------------------------------------------------------------------------|

VI. Outro
e|------------------------------------------------------------------------|
B|------------------------------------------------------------------------|
G|------------------6-6-6-6-6-6-6-6---------------------------------------|
D|--3-3-3-3-3-3-3-3-6-6-6-6-6-6-6-6-10-10-10-10-10-8-6-5-6-3-3-3-3-3-3-3--|
A|--3-3-3-3-3-3-3-3-4-4-4-4-4-4-4-4-10-10-10-10-10-8-6-5-6-3-3-3-3-3-3-3--|
E|--1-1-1-1-1-1-1-1------------------8--8--8--8--8-6-4-3-4-1-1-1-1-1-1-1--|

e|-------------------------------------------------------------------------------|
B|-------------------------------------------------------------------------------|
G|------------------6-6-6-6-6-6-6-6----------------------------------------------|
D|--3-3-3-3-3-3-3-3-6-6-6-6-6-6-6-6-10-10-10-10-10-10-10-10-10-10-10-10----------|
A|--3-3-3-3-3-3-3-3-4-4-4-4-4-4-4-4-10-10-10-10-10-10-10-10-10-10-10-10----------|
E|--1-1-1-1-1-1-1-1------------------8--8--8--8--8--8--8--8--8--8--8--8-8-6-4-3--|
Comments