Green Day - Viva La Gloria Little Girl Chords & Tabs

 

Viva La Gloria Little Girl Chords & Tabs

Green Day Chords & Tabs

Version: 6 Type: Bass Tab 0 ratings
1 star 2 stars 3 stars 4 stars 5 stars
comments

Viva La Gloria Little Girl Bass Tab

iViva La GLoria!(Little Girl)
Green Day
21st Century Breakdown
Bassist:Mike Dirnt

If you liked this tab, check out Murder City(Version 6/ The one with the info next 
to it) that I also tabbed out. It is 100% correct. Check me out at 
Ckerns@westernlocalstudents.com

Intro:Piano+Billie Joe
Chorus
G:-----------------------------------------------------------------|
D:-----------------------------------------------------------------|
A:-----------------4-4-----4-4---4-3-3-----3-1---------3-3-----3-3-|
E:-1-1-1-1-1-1-1-1-----4-4-----4-------3-3-----4-3-1-1-----1-1-----|

G:---------------------------------------------------------|
D:---------------------------------------------------------|
A:-----3-3-----3-3-4-4-----4-4---4-3-3-3-3-3-3-3-3-3-3-3-3-|
E:-1-1-----1-1---------4-4-----4---------------------------|

Verse
G:--------------------------------------------------------------------------|
D:--------------------------------------------------------------------------|
A:-----2-3-----2-3-----2-3-----2-3---------------4--4--4-4--3-3-----3-1-----|
E:-1-1-----1-1-----1-1-----1-1----------1-1---1-----------------3-3-----4-3-|

Chorus
G:-----------------------------------------------------------------|
D:-----------------------------------------------------------------|
A:-----------------4-4-----4-4---4-3-3-----3-1---------3-3-----3-3-|
E:-1-1-1-1-1-1-1-1-----4-4-----4-------3-3-----4-3-1-1-----1-1-----|

G:---------------------------------------------------------|
D:---------------------------------------------------------|
A:-----3-3-----3-3-4-4-----4-4---4-3-3-3-3-3-3-3-3-3-3-3-3-|
E:-1-1-----1-1---------4-4-----4---------------------------|

Interlude
G:---------------------------------|---------------------------------|
D:---------------------------------|---------------------------------|
A:-4-4-4-4-4-4-4-4-----------------|-4-4-4-4-4-4-4-4-----------------|
E:-----------------4-4-4-4-4-4-4-4-|-----------------4-4-4-4-4-4-4-4-|
[ Tab from: http://www.guitartabs.cc/tabs/g/green_day/viva_la_gloria_little_girl_btab_ver_6.html ]
G:---------------------------------|-------------------------------------|
D:---------------------------------|-------------------------------------|
A:-4-4-4-4-4-4-4-4-----------------|-3-3-3-3-3-3-3-3-3-3-3-3/15-15-15-15-|
E:-----------------4-4-4-4-4-4-4-4-|-------------------------------------|

Solo(Background)
G:-----------------------------------------------------------------|
D:-----------------------------------------------------------------|
A:-8-8-8-8-8-8-8-8-6-6-6-6-6-6-6-6-5-5-5-5---------6-6-6-6---------|
E:-----------------------------------------6-6-6-6---------8-8-8-8-|

G:-----------------------------------------------------------------|
D:-----------------------------------------------------------------|
A:-8-8-8-8-8-8-8-8-6-6-6-6-6-6-6-6-5-5-5-5---------6-6-6-6---------|
E:-----------------------------------------6-6-6-6---------8-8-8-8-|

G:-----------------------------------------------------------------|
D:-----------------------------------------------------------------|
A:-8-8-8-8-8-8-8-8-6-6-6-6-6-6-6-6-5-5-5-5---------6-6-6-6---------|
E:-----------------------------------------6-6-6-6---------8-8-8-8-|

G:-----------------------------------------------------------------|
D:-----------------------------------------------------------------|
A:-8-8-8-8-8-8-8-8-6-6-6-6-6-6-6-6-5-5-5-5---------6-6-6-6---------|
E:-----------------------------------------6-6-6-6---------8-8-8-8-|

Chorus
G:-----------------------------------------------------------------|
D:-----------------------------------------------------------------|
A:-----------------4-4-----4-4---4-3-3-----3-1---------3-3-----3-3-|
E:-1-1-1-1-1-1-1-1-----4-4-----4-------3-3-----4-3-1-1-----1-1-----|

G:---------------------------------------------------------|
D:---------------------------------------------------------|
A:-----3-3-----3-3-4-4-----4-4---4-3-3-3-3-3-3-3-3-3-3-3-3-|
E:-1-1-----1-1---------4-4-----4---------------------------|

Order:
Intro
Chorus
Verse
Chorus
Interlude
Solo(Background)
Chorus

SlyFooX Out!
Comments