Green Day - Viva La Gloria Chords & Tabs

 

Viva La Gloria Chords & Tabs

Green Day Chords & Tabs

Version: 8 Type: Bass Tab 0 ratings
1 star 2 stars 3 stars 4 stars 5 stars
comments

Viva La Gloria Bass Tab

-INTRO

There's no Bass here
Just piano


The bass line starts at 01:10


-MAIN

(Gloooooooria)
G--------------------------------------------------------------------|
D--------------------------------------------------------------------|
A---7777777777777777----------------4-444444-444-444-----------------|
E-------------------4444444444444444----------------5-555555-555555--|

G-----------------------------------------------------------------------------------|
D-----------------------------------------------------------------------------------|
A---12-121212121212-121212-121212----2224-4444444-----------------------------------|
E--------------------------------0-00-------------5-555555-555-5557-777777-7777777--|

	repeat 2 times

-BRIDGE

(She smashed her knuckles..)(gloooooooooriaaaaaaaaaaaaaaa)-->awesome
G-------------------------------------------------------------------|
D-------------------------------------------22----------------------|
A---77-777-7--------44-444-444-444-4----------------22-222-222-222--|
E-----------44-444-4----------------55-555-5---000-0----------------|

	repeat 2 times

then:
[ Tab from: http://www.guitartabs.cc/tabs/g/green_day/viva_la_gloria_btab_ver_8.html ]
(so dont' put away your burning light)
G------------------------------|
D------------------------------|
A---0-0-0-00-0-0-2-2-2-2222-2--|
E------------------------------|


-MAIN

(Gloooooooria)
G--------------------------------------------------------------------|
D--------------------------------------------------------------------|
A---7777777777777777----------------4-444444-444-444-----------------|
E-------------------4444444444444444----------------5-555555-555555--|

G-----------------------------------------------------------------------------------|
D-----------------------------------------------------------------------------------|
A---12-121212121212-121212-121212----2224-4444444-----------------------------------|
E--------------------------------0-00-------------5-555555-555-5557-777777-7777777--|

	repeat 2 times

-OUTRO

(Soooo Gloooooriaaaaaaaa)
G---------------------------------------------------------------------|
D---------------------------------------------------------------------|
A---0-------7-------12---12---7-------0-------7-------2-------2---2---|
E---------------------------------------------------------------------|

	reapeat 2 times

then:

G---------------------------------------|
D---------------------------------------|
A---7-------7-------7-------7-------7---|
E---------------------------------------|


THE END


Amazing song I love it...           contact me to:   luca.arrais@fastwebnet.it
Comments