Green Day - Viva La Gloria Chords & Tabs

 

Viva La Gloria Chords & Tabs

Green Day Chords & Tabs

Version: 5 Type: Bass Tab 0 ratings
1 star 2 stars 3 stars 4 stars 5 stars
comments

Viva La Gloria Bass Tab

RATE PLEASE!

Updated 19/06/09

Green Day
Viva La Gloria
21st Century Breakdown
2009

Piano Intro

It's not hard to work out when the bass comes in. But for anyone who didn't know, 
it's when tre hits the hi hat 4 times.


Gloria Where Are You Gloria?...
|----------------------------------------------------------------------------------------------| l
|----------------------------------------------------------------------------------------------| l
|-------------------------------------------4-4-4-4-4-4-4-4------------------------------------| l
|0-0-0-0-0-0-0-0-------4-4-4-4-4-4-4-4------------------------5-5-5-5-5-5-5-5---5-5-5-5-5-5-5-5| l
                                                                                                 l
...Slashing through your spirit                                                                  l
-----------------------------------------------------------------------------|                   lx2
-----------------------------------------------------------------------------|                   l
-------2-2--4-4-4-4-4-4-4-4--------------------------------------------------|                   l
--0-0--------------------------5-5-5-5-5-5-5-5-------7-7-7-7-7-7-7-7---------|                   l


Verse:
|--------------------------------------------------------------------|
|--------------------------------------------------------------------|
|----------------------------------4-4-x-4-4-4-x-4-4-4-x-4-4-4-x-4---|
|--0-0-x-0-0-0-x-0-4-4-x-4-4-4-x-4-----------------------------------|
[ Tab from: http://www.guitartabs.cc/tabs/g/green_day/viva_la_gloria_btab_ver_5.html ]
-------------------------------------------------------------------|
-------------------------------------------------------------------|
-------------------------------------------------------------------|
--5-5-x-5-5-5-x-5-0-0-x-0-0-0-x--7-7-x-7-7-7-x-7-7-7-x-7-7-7-------|   ALL OF THE VERSE TWICE TOO!


----------------------|
----------------------|
---0-0-0~-2-2-2-2-----|
----------------------|
So don't put away....


Chorus:
Gloria Where Are You Gloria?...
|----------------------------------------------------------------------------------------------| l
|----------------------------------------------------------------------------------------------| l
|--------------------------------------------4-4-4-4-4-4-4-4-----------------------------------| l
|0-0-0-0-0-0-0-0-------4-4-4-4-4-4-4-4------------------------5-5-5-5-5-5-5-5---5-5-5-5-5-5-5-5| l
                                                                                                 l
...Slashing through your spirit                                                                  lx2
-----------------------------------------------------------------------------|                   l
-----------------------------------------------------------------------------|                   l
-------2-2--4-4-4-4-4-4-4-4--------------------------------------------------|                   l
--0-0--------------------------5-5-5-5-5-5-5-5-------7-7-7-7-7-7-7-7---------|                   l


Ending:

|-----------------------|     l
|-----------------------|     l
|--12~------12~---------|     l
|------12~-----161412~--|     l
                              l  PLAY TWICE!
|----------------------|      l
|----------------------|      l
|--0~--------2~--2~2~--|      l
|-------0~-------------|      l

|------------|
|------------|
|--7-7-7-7-7-|
|------------|
Comments