Green Day - Uptight Chords & Tabs

 

Uptight Chords & Tabs

Green Day Chords & Tabs

Version: 4 Type: Tab 0 ratings
1 star 2 stars 3 stars 4 stars 5 stars
comments

Uptight Tab

   
Band:Green Day
Song:Uptight
Album:Nimrod
Tuning:Standard
i found a good way to play this song, all the Other
main riffs for this song sound inaccurate for this song
Here it is.
[ Tab from: http://www.guitartabs.cc/tabs/g/green_day/uptight_tab_ver_4.html ]
Intro/Verse
pm_________________________________________________________________
e|-----------------------------------------------------------------|
B|-----------------------------------------------------------------|
G|-----------------------------------------------------------------|
D|-5-5-5-4-4-4-5-5-5-4-4-4-5-5-4-4---------------------------------|
A|-3-3-3-3-3-3-3-3-3-3-3-3-3-3-3-3-5-5-5-4-4-4-5-5-5-4-4-4-5-5-4-4-|
E|---------------------------------3-3-3-3-3-3-3-3-3-3-3-3-3-3-3-3-|

pm________________________________
|---------------------------------|
|---------------------------------|
|-6-6-6-6-6-6-6-6-4-4-4-4-4-4-4-4-|
|-6-6-6-6-6-6-6-6-4-4-4-4-4-4-4-4-|
|-4-4-4-4-4-4-4-4-2-2-2-2-2-2-2-2-|
|---------------------------------|

Chorus
|---------------------------------------------------------|
|---------------------------------------------------------|
|-------------4-4-4-4-4-4-4-4-------------4-4-4-4-4-4-4-4-|
|-4--4--4-4-4-4-4-4-4-4-4-4-4-4--4--4-4-4-4-4-4-4-4-4-4-4-|
|-4--4--4-4-4-2-2-2-2-2-2-2-2-4--4--4-4-4-2-2-2-2-2-2-2-2-|
|-2--2--2-2-2-----------------2--2--2-2-2-----------------|           

Well thats it hope you like it
Comments