Green Day - Uptight Chords & Tabs

 

Uptight Chords & Tabs

Green Day Chords & Tabs

Version: 3 Type: Tab 0 ratings
1 star 2 stars 3 stars 4 stars 5 stars
comments

Uptight Tab

   
Green Day,Uptight.
Tabbed by Sebastian Lapidus, sebaslap@yahoo.com.
  
UPTIGHT

INTRO

e---------------------------------               -----
B---------------------------------               -----
G--------------------------------- x4 and after->-6-6-
D-4-4-4-3-3-3-4-4-4-3-3-3-4-4-3-3-               -6-6-
A---------------------------------               -4-4-
E---------------------------------               -----
PM________________________________


VERSE:

Is exactly the same intro but with a little change:

e-----------------------------------------
B-----------------------------------------
G-6-6-6-6-6-6-6-6-6-6-4-4-4-4-4-4-4-4-4-4-
D-6-6-6-6-6-6-6-6-6-6-4-4-4-4-4-4-4-4-4-4-
A-4-4-4-4-4-4-4-4-4-4-2-2-2-2-2-2-2-2-2-2-
E-----------------------------------------
PM________________________________________

"...a perfect picture of bad health..."

CHORUS:
[ Tab from: http://www.guitartabs.cc/tabs/g/green_day/uptight_tab_ver_3.html ]
e--------------------------------------------
B--------------------------------------------
G------------4-4-4-4-4-------------4-4-4-4-4-
D-4-4-4-4-4--4-4-4-4-4--4-4-4-4-4--4-4-4-4-4-
A-4-4-4-4-4--2-2-2-2-2--4-4-4-4-4--2-2-2-2-2-
E-2-2-2-2-2-------------2-2-2-2-2------------

e----------------------------------------------------
B----------------------------------------------------
G------------6-6-6-6-6-------------4-4--6-6----------
D-4-4-4-4-4--6-6-6-6-6--4-4-4-4-4--4-4--6-6----------
A-4-4-4-4-4--4-4-4-4-4--4-4-4-4-4--2-2--4-4----------
E-2-2-2-2-2-------------2-2-2-2-2--------------------

SOLO (ITS VERY EASY!)

e-2-2-2-1-1-1-2-2-2-1-1-1-2-2-1-1-
B-2-2-2-2-2-2-2-2-2-2-2-2-2-2-2-2-
G---------------------------------
D---------------------------------
A---------------------------------
E---------------------------------

PM = palm muted

that's all folks (easy, isn't it?) 
:: Ultimate Guitar Archive :: 
http://www.ultimate-guitar.com 

Comments