Green Day - Uptight Chords & Tabs

 

Uptight Chords & Tabs

Green Day Chords & Tabs

Version: 1 Type: Bass Tab 0 ratings
1 star 2 stars 3 stars 4 stars 5 stars
comments

Uptight Bass Tab

Song:uptight	
Band:green day	
Album:nimrod
tabbed by:pembs and the monkeys, 
mail me with problems, abuse, monkey sites:  pembs@punkmail.com



Verse         Do this loads

G:--------------------------------------------------------------
D:--------------------------------------------------------------
A:---9999999999999999-------------------------------------------
E:---------------------7777777777777777-------------------------
[ Tab from: http://www.guitartabs.cc/tabs/g/green_day/uptight_btab.html ]
2nd time you play it, at the start, stick 2 G sharps at the end
thats E:--99--

Chorus
			x2			  x1
G:---------------------   G:---------------------
D:---------------------   D:---------------------
A:--9-9-999------------   A:--9-9-999------------
E:----------7-77-7777--   E:-----------9-99-9999-


G:---------------------
D:---------------------
A:--9-9-999------------
E:----------77---99----


Well, that it kids, enjoy. Now i'm goin away to eat lots of fish.

Pembs
Comments