Green Day - Too Much Too Soon Chords & Tabs

 

Too Much Too Soon Chords & Tabs

Green Day Chords & Tabs

Version: 5 Type: Tab 0 ratings
1 star 2 stars 3 stars 4 stars 5 stars
comments

Too Much Too Soon Tab

Ok all the other tabs are absolutley rubbish, all the intros are wrong and so are the pre chorus's

INTRO
e|-------------------------------------------------------------------------|
B|-------------------------------------------------------------------------|
G|-------------------------------------------------------------------------|
D|-9-9-999999--13-11--14-14-14141414141414---16--16------------------------|
A|-9-9-999999--13-11--14-14-14141414141414---16--16------------------------|
E|-7-7-777777--11-9---12-12-12121212121212---14--14------------------------|
x2
VERSE
e|-------------------------------------------------------------------------|
B|-------------------------------------------------------------------------|
G|---4-4444444-------------------------------------------------------------|
D|---4-4444444---2-22222222-----4-4-4-44-4---------------------------------|
A|---2-2222222---2-22222222-----4-4-4-44-4-------x4------------------------|
E|---------------0-00000000-----2-2-2-22-2---------------------------------|
[ Tab from: http://www.guitartabs.cc/tabs/g/green_day/too_much_too_soon_tab_ver_5.html ]
PRE-CHORUS
e|---------------------------------------------|
B|---------------------------------------------|
G|---------------------------------------------|
D|66-4-222222222--444444-----------------2-4---|
A|66-4-222222222--444444----x2--then-----2-4---|
E|44-2-000000000--222222-----------------0-2---|
                                         to you

then the chorus is the same as the intro..

AFTER-CHORUS
e|-------------------------------------------------------------------------|
B|-------------------------------------------------------------------------|
G|--4--4444--4444---4------------------------------------------------------|
D|--4--4444--4444---4--4-4-4-4--2--2222-2222-------------------------------|
A|--2--2222--2222---2--4-4-4-4--2--2222-2222--------x2---------------------|
E|---------------------2-2-2-2--0--0000-0000-------------------------------|


BRIDGE
e|-------------------------------------------------------------------------|
B|----7/9~--9/5--5p4--4/2---7h9~--9/5--5p4~--------------------------------|
G|-------------------------------------------------------------------------|
D|---------------------------------------------44444444444-----------------|
A|---------------------------------------------44444444444-----------------|
E|-----------------------------------------12/-22222222222-----------------|

well thats it... if you wanna no the words with the chorus just listen to the song and work
it out... bb JACK
Comments