Green Day - Too Much Too Soon Chords & Tabs

 

Too Much Too Soon Chords & Tabs

Green Day Chords & Tabs

Version: 4 Type: Tab 0 ratings
1 star 2 stars 3 stars 4 stars 5 stars
comments

Too Much Too Soon Tab

------------------------------------------------------------------------------------------
------------------Too Much Too Soon Intro - Green Day
------------------------------------------------------------------------------------------
Tabbed by: Erwin
Email: ps2kidd@hotmail.com

Standard Tuning

The version 3 tab INTRO to this song sounds completely wrong to the actual intro of the
song. The rest of it sounds correct though. This is the correct intro by ear.

Tuning:
[ Tab from: http://www.guitartabs.cc/tabs/g/green_day/too_much_too_soon_tab_ver_4.html ]
e|--------------------------------------------------------------------------|
B|--------------4---8--9-x-99-x-9--9-99--11---------------------------------|
G|--4-x-44-x-44-4-6-8--9-x-99-x-9--9-99--11---------------------------------|
D|--4-x-44-x-44-2-6-6--7-x-77-x-7--7-77--11---------------------------------|
A|--2-x-22-x-22---4----------------------9----------------------------------|
E|--------------------------------------------------------------------------|

| x  Mute note/Palm Mute


Enjoy!
===============================================================================
Comments