Green Day - Too Much Too Soon Chords & Tabs

 

Too Much Too Soon Chords & Tabs

Green Day Chords & Tabs

Version: 3 Type: Tab 0 ratings
1 star 2 stars 3 stars 4 stars 5 stars
comments

Too Much Too Soon Tab

   
Song: Too Much Too Soon
Artist: Green Day
Album: American Idiot B-Side
Tuning: Standard (E-A-D-G-B-e)

I looked at the other two tabs for this, and they were wrong, so here's my 2 cents.

Intro:

e|-------------------------------------------------------------------------|
B|-------------------------------------------------------------------------|
G|--4--4444--4444---4------------------------------------------------------|
D|--4--4444--4444---4--4--2--2222-2222--2--4-------------------------------|
A|--2--2222--2222---2--4--2--2222-2222--2--4--------x2---------------------|
E|---------------------2--0--0000-0000--0--2-------------------------------|

Verse:

e|-------------------------------------------------------------------------|
B|-------------------------------------------------------------------------|
G|---4-4444444-------------------------------------------------------------|
D|---4-4444444---2-22222222-----4-4-4-44-4---------------------------------|
A|---2-2222222---2-22222222-----4-4-4-44-4-------x4------------------------|
E|---------------0-00000000-----2-2-2-22-2---------------------------------|
PM     .......     ........       .   ..

Pre-Chorus:

e|--0-0-0-0-0-0------------------------------------------------------------|
B|--0-0-0-0-0-0------------------------------------------------------------|
G|--x-x-x-x-x-x------------------------------------------------------------|
D|--2-2-2-2-2-2---4-4-4-4-4-4-4--6-6-6-6-6-6-6-6---------------------------|
A|--2-2-2-2-2-2---4-4-4-4-4-4-4--6-6-6-6-6-6-6-6---------------------------|
E|--0-0-0-0-0-0---2-2-2-2-2-2-2--4-4-4-4-4-4-4-4---------------------------|
[ Tab from: http://www.guitartabs.cc/tabs/g/green_day/too_much_too_soon_tab_ver_3.html ]
e|--0-0-0-0-0-0------------------------------------------------------------|
B|--0-0-0-0-0-0------------------------------------------------------------|
G|--x-x-x-x-x-x------------------------------------------------------------|
D|--2-2-2-2-2-2---4-4-4-4-4-4-4---2--4~------------------------------------|
A|--2-2-2-2-2-2---4-4-4-4-4-4-4---2--4~------------------------------------|
E|--0-0-0-0-0-0---2-2-2-2-2-2-2---0--2~------------------------------------|

Chorus:

e|-------------------------------------------------------------------------|
B|-------------------------------------------------------------------------|
G|--4--4444--4444---4------------------------------------------------------|
D|--4--4444--4444---4--4--2--2222-2222--2--4-------------------------------|
A|--2--2222--2222---2--4--2--2222-2222--2--4--------x4---------------------|
E|---------------------2--0--0000-0000--0--2-------------------------------|

Post Chorus:

e|-------------------------------------------------------------------------|
B|-------------------------------------------------------------------------|
G|--4--4444--4444---4------------------------------------------------------|
D|--4--4444--4444---4--4-4-4-4--2--2222-2222-------------------------------|
A|--2--2222--2222---2--4-4-4-4--2--2222-2222--------x2---------------------|
E|---------------------2-2-2-2--0--0000-0000-------------------------------|

Repeat Verse

Repeat Pre-Chorus

Repeat Chorus

Repeat Post Chorus

Bridge:

e|-------------------------------------------------------------------------|
B|----7h9~--7/5--5p4--4/2---7h9~--7/5--5p4~--------------------------------|
G|-------------------------------------------------------------------------|
D|---------------------------------------------44444444444-----------------|
A|---------------------------------------------44444444444-----------------|
E|-----------------------------------------12/-22222222222-----------------|


Repeat Intro during the Woah oh oh oh oh part. 

Repeat Chorus

Repeat Post Chorus during the second Woah oh oh oh oh part

End on:

e|----------------|
B|----------------|
G|--4~---4--------|
D|--4~---4--------|
A|--2~---2--------|
E|----------------|
         *

Key:
p= Pull off
h= Hammer on
*= sticcato note (short, don't let ring out)
/= slide
.= palm mute
~= let ring
x= mute string
Comments