Green Day - Too Much Too Soon Chords & Tabs

 

Too Much Too Soon Chords & Tabs

Green Day Chords & Tabs

Version: 2 Type: Tab 0 ratings
1 star 2 stars 3 stars 4 stars 5 stars
comments

Too Much Too Soon Tab

   
Tabbed by: Aidan Millward
Email: aidanmillward@hotmail.com

Ok everybody, lets get this straight, great band, great song, great single. This is my 
tab and I'm only 14! Anyways, lets get started. The verses are palm muted, but don't palm 
the first chord in the bar.
eg. when it changes from B5 to E5, the first E5 is NOT palm muted. Geddit?


I have to say this is my first tab and is virtually 100% correct. There was no tab for 
on Ultimate
Guitar. (Well, there is a bass tab) so I thought I would do the guitar tab so my band 
play it live.

Tuning: Standard E A D G B E

Intro: (After Tré's drum intro)
x2
e|-------------------------------------------------------------------------|
B|-------------------------------------------------------------------------|
G|-4--4-4-4-4-4------------------------------------------------------------|
D|-4--4-4-4-4-4--4-4-4-2-2-2-2-2--4-6--------------------------------------|
A|-2--2-2-2-2-2--4-4-4-2-2-2-2-2--4-6--------------------------------------|
E|---------------2-2-2-0-0-0-0-0--2-4--------------------------------------|
[ Tab from: http://www.guitartabs.cc/tabs/g/green_day/too_much_too_soon_tab_ver_2.html ]
Verse (x4)
e|-------------------------------------------------------------------------|
B|-------------------------------------------------------------------------|
G|-44444444444444444444----------------------------------------------------|
D|-44444444444444444444-22222222222222222222222-4444444444444444444--------|
A|-22222222222222222222-22222222222222222222222-4444444444444444444--------|
E|----------------------00000000000000000000000-2222222222222222222--------|
    xxxxxxxxxxxxxxxxxxx  xxxxxxxxxxxxxxxxxxxxxx  xxxxxxxxxxxxxxxxxx

Bridge
e|-------------------------------------------------------------------------|
B|-------------------------------------------------------------------------|
G|-------------------------------------------------------------------------|
D|-22222222222222222222444444444444-66-22-22222222222222222222-----46------|
A|-22222222222222222222444444444444-66-22-22222222222222222222-----46------|
E|-00000000000000000000222222222222-44-00-00000000000000000000-----24------|

Bit after chorus
e|----------------|
B|----------------|
G|-4-44-42---222--|
D|-4-44-44444222--|
A|-2-22-22444000--|
E|--------222-----|


Chorus is as intro then the second verse. In the bit after second chrorus,"I hope to see 
in hell I
hope you rest in peices F**K YOU!" part, Billie Joe sings "Too Much Too Soon with no 
bass or
drums playing, after that, play:

e|--------|
B|--------|
G|--------|
D|-44-42--|
A|-44-42--|
E|-22-20--| Very Quicky

play the rest of the song as normal

Outro (X4)

e|----------------|
B|----------------|
G|-4-44-42---222--|
D|-4-44-44444222--|
A|-2-22-22444000--|
E|--------222-----|


Song Progression

Intro
Verse
Bridge
Chorus
Verse
Bridge
Chorus
Slow bit in the middle
Break
Chorus
Outro

There we have it! The B side to American Idiot!

HAVE FUN!

============================================================================
Comments