Green Day - Time Of Your Life Chords & Tabs

 

Time Of Your Life Chords & Tabs

Green Day Chords & Tabs

Version: 2 Type: Bass Tab 0 ratings
1 star 2 stars 3 stars 4 stars 5 stars
comments

Time Of Your Life Bass Tab

----------------------------------------------------------------------------
                       Time of Your Life - Green Day
----------------------------------------------------------------------------

Bassist: Mike Drint
Tabbed By: no_0rdinance
[ Tab from: http://www.guitartabs.cc/tabs/g/green_day/time_of_your_life_btab_ver_2.html ]
This song doesn't usually have bass but i added it in and it sounds pretty cool.
start after the part where he screws up
Verse x4 
G|------------------------------------------------------------------------|
D|------------------------------------------------------------------------|
A|--------------------3------5--------------------------------------------|
E|-----3-------3----------------------------------------------------------|
chorus x2
G|------------------------------------------------------------------------|
D|------------------------------------------------------------------------|
A|-----7-----5----3-------------------------------------------------------|
E|----------------------3-------------------------------------------------|
interlude/solo
G|------------------------------------------------------------------------|
D|------------------------------------------------------------------------|
A|-----0230-----02-----023------------------------------------------------|
E|-303------303----303-----22222------------------------------------------|
Verse 2 x4 (strumming part)
G|------------------------------------------------------------------------|
D|------------------------------------------------------------------------|
A|-------------33333-55555------------------------------------------------|
E|-33333-33333------------------------------------------------------------|

G|------------------------------------------------------------------------|
D|------------------------------------------------------------------------|
A|-77777-55555-33333------------------------------------------------------|
E|-------------------33333------------------------------------------------|

repeat solo 
reapeat verse x3
on last time play very slow.
G|------------------------------------------------------------------------|
D|------------------------------------------------------------------------|
A|---------------3-----5--------------------------------------------------|
E|---3-----3----------------3---------------------------------------------|

If you like this tab then e-mail me and tell me. no_0rdinance@hotmail.com
Comments