Green Day - Time Of Your Life Chords & Tabs

 

Time Of Your Life Chords & Tabs

Green Day Chords & Tabs

Version: 1 Type: Bass Tab 10 ratings
1 star 2 stars 3 stars 4 stars 5 stars
comments

Time Of Your Life Bass Tab

   
GREEN DAY: Time of your life
Standard Tuning – (E-A-D-G)

Everyone knows there is know bass in this song but my tutor and I made up a part for the song anyway. The notes with a distance between them are whole notes (4 beats) and the ones with a short gap between them are quarter notes (1 beats). Good luck!
[ Tab from: http://www.guitartabs.cc/tabs/g/green_day/time_of_your_life_btab.html ]
G----------------------------------------
D----------------------O----------------
A--------------2-3----------------------
E----3----3------------------------------
(REPEAT)

G-----------------------------------------
D--------O-------------------------------
A--------------3--------------------------
E----O------------3----------------------
(REPEAT)

G------------------------------------------
D---------------2-------------O-----------
A------------------------3-----------------
E----O----3--------3----------------------
(REPEAT)

You can work out the timing. Each bit will be noticeable if you listen to the song carefully.

Cheers Tim.
Comments