Green Day - The Static Age Chords & Tabs

 

The Static Age Chords & Tabs

Green Day Chords & Tabs

Version: 4 Type: Bass Tab 0 ratings
1 star 2 stars 3 stars 4 stars 5 stars
comments

The Static Age Bass Tab

   
-------------------------------------------------------------------------------
			     The Static Age - Green Day
-------------------------------------------------------------------------------


Tabbed By : joestro
e-mail: neil.r.tarr@gmail.com

Tuning: Standard

Very easy song, any bassist should be able to play this

UPDATE: I made it a little clearer about the key change in the final verse and 
chorus, and fixed the bridge a little


Intro/Verse
G|---------------------------------------------------------------------------|
D|---------------------------------2-2-2-2-2-2-2-2---------------------------|
A|-2-2-2-2-2-2-2-2-2-2-2-2-2-2-2-2-------------------------------------------|
E|-------------------------------------------------2-2-2-2-2-2-2-2-----------|

G|---------------------------------------------------------------------------|
D|---------------------------------2-2-2-2-2-1-2-2-4-4-4-4-4-4-4-4-----------|
A|-2-2-2-2-2-2-2-2-2-2-2-2-2-2-2-2-------------------------------------------|
E|---------------------------------------------------------------------------|

Prechorus 
G|---------------------------------------------------------------------------|
D|---------------------------------------------------------------------------|
A|---------------------------------------------------------------------------|
E|-2-2-0-----------2-2-0-2--222222222222222222222222-------------------------|

Chorus
G|---------------------------------------------------------------------------|
D|---------------------------------------------------------------------------|
A|-2-2-2-2---------2-2-2-2---------2-2-2-2---------2-2-2-2-------------------|
E|---------0-0-2-2---------0-0-2-2---------0-0-2-2----------2222222----------|

Bridge (Hey hey it's the static age...)
G|---------------------------------------------------------------------------|
D|-2222222222222222----------------22222222222222224444424455555555----------|
A|-----------------2222222222222222------------------------------------------|
E|---------------------------------------------------------------------------|

Solo (+1 step; play starting on C instead of B)
G|---------------------------------------------------------------------------|
D|---------------------------------3-3-3-3-3-3-3-3---------------------------|
A|-3-3-3-3-3-3-3-3-3-3-3-3-3-3-3-3-------------------------------------------|
E|-------------------------------------------------3-3-3-3-3-3-3-3-----------|

G|---------------------------------------------------------------------------|
D|---------------------------------3-3-3-3-3-2-3-3-5-5-5-5-5-5-5-5-----------|
A|-3-3-3-3-3-3-3-3-3-3-3-3-3-3-3-3-------------------------------------------|
E|---------------------------------------------------------------------------|
[ Tab from: http://www.guitartabs.cc/tabs/g/green_day/the_static_age_btab_ver_4.html ]
Solo Outro
G|---------------------------------------------------------------------------|
D|-6666666677778888991010111212----------------------------------------------|
A|---------------------------------------------------------------------------|
E|---------------------------------------------------------------------------|

Verse 3 and the chorus are both played on D, instead of C, and the entire riff 
becomes two steps higher than the solo


Final Verse
G|---------------------------------------------------------------------------|
D|----------------------------------5-5-5-5-5-5-5-5--------------------------|
A|--5-5-5-5-5-5-5-5-5-5-5-5-5-5-5-5------------------------------------------|
E|---------------------------------------------------5-5-5-5-5-5-5-5---------|


Final Chorus
G|---------------------------------------------------------------------------|
D|---------------------------------------------------------------------------|
A|--5-5-5-5--------5-5-5-5-----------------5-5-5-5---------3-3-3-3-----------|
E|----------3-3-5-5--------3-3-5-5-----------------3-3-5-5---------33333333--|


Outro
G|---------------------------------------------------------------------------|
D|---------------------------------------------------------------------------|
A|-1-1-1-1-1-1-1-1-3-3-3-3-3-3-3-3-5~----------------------------------------|
E|---------------------------------------------------------------------------|

Lyrics:
Can you hear the sound of the static noise
Blasting on the stereo?
Can you tune the class of the paranoid?
Music to my nervous system
Advertising love and religion
Murder on the airways
Slogans on the brink of corruption
Visions of blasphemy
War and peace
Whoa
Screaming at you

I can't see a thing in the video
I can't hear a sound on the radio
In stereo in the static age

Billboard on the rise in the dawns landscape
Working on sanity
Tragic a la madness and concrete
Coca cola execution
Consience all across and your heart's in a lie
Speaking out your state of mind
All of what you own that you cannot buy
What a fucking tragedy
Strategy
Whoa
Screaming at you

I can't see a thing in the video
I can't hear a sound on the radio
In stereo in the static age
I can't see a thing in the video
I can't hear a sound on the radio
In stereo in the static age

Hey hey it's the static age
Well this is how the west was won
Hey hey it's the static age
Millenium

All I wanna know is a goddamn thing
Not what's in the medicine
All I wanna do is I want to breathe
Batteries are not included
What's the latest way that a man can die
Screaming Hallelujah?
Singing on the dawns early light
Silence of the rotten
Forgotten
Whoa
Screaming at you

I can't see a thing in the video
I can't hear a sound on the radio
In stereo in the static age
I can't see a thing in the video
I can't hear a sound on the radio
In stereo in the static age
I can't see a thing in the video
I can't hear a sound on the radio
In stereo in the static age
I can't see a thing in the video
I can't hear a sound on the radio
In stereo in the static age
The static age

Song Order:
Intro
Verse 1
Prechorus
Chorus
Intro riff
Verse 2
Prechorus
Chorus
Bridge
Solo
Verse 3
Chorus
Outro

| /  slide up
| \  slide down
| h  hammer-on
| p  pull-off
| ~  vibrato
| +  harmonic
| x  Mute note
===============================================================================
Comments