Green Day - The Grouch Chords & Tabs

 

The Grouch Chords & Tabs

Green Day Chords & Tabs

Version: 3 Type: Tab 0 ratings
1 star 2 stars 3 stars 4 stars 5 stars
comments

The Grouch Tab

The first 5 measures are shown as a rest because the second guitar plays them..this is the
first guitar part.  This version of The Grouch is much easier than some I have seen posted,
but it sounds the same and is the right way!

E ------|------|------|------|------|-------------|-------------|-----
B ------|------|------|------|------|-------------|-------3-3-0-|-----
G ------|------|------|------|------|-2-2-0-------|-2-2-0-2-2-0-|-2-2-
D ------|------|------|------|------|-2-2-0-2-2-0-|-2-2-0-0-0-0-|-2-2-
A ------|------|------|------|------|-0-0-0-2-2-0-|-0-0-0-------|-0-0-
E ------|------|------|------|------|-------0-0-0-|-------------|-----

E --0-0---|-------------|-------------|-------------|-------------|---
B --0-0-0-|-------------|-------------|-------3-3-0-|-------------|-3-
G 0-----0-|-2-2-2-2-2-2-|-2-2-0-------|-2-2-0-2-2-0-|-2-2-0-------|-2-
D 0-2-2-0-|-2-2-2-2-2-2-|-2-2-0-2-2-0-|-2-2-0-0-0-0-|-2-2-0-2-2-0-|-0-
A 0-------|-0-0-0-0-0-0-|-0-0-0-2-2-0-|-0-0-0-------|-0-0-0-2-2-0-|---
E --------|-------------|-------0-0-0-|-------------|-------0-0-0-|---

E ----------|-------------|-------------|-------0-0---|-------------|-
B 3---------|-------------|-------3-3-0-|-------0-0-0-|-------------|-
G 2-0-------|-2-2-0-------|-2-2-0-2-2-0-|-2-2-0-----0-|-2-2-2-2-2-2-|-
D 0-0-2-2-0-|-2-2-0-2-2-0-|-2-2-0-0-0-0-|-2-2-0-2-2-0-|-2-2-2-2-2-2-|-
A --0-2-2-0-|-0-0-0-2-2-0-|-0-0-0-------|-0-0-0-------|-0-0-0-0-0-0-|-
E ----0-0-0-|-------0-0-0-|-------------|-------------|-------------|-

E ------------|---------------|-------------|---------------|---------
B ------3-3---|---------------|-------3-3---|---------------|-------3-
G ------2-2-0-|-2-2-----------|-------2-2-0-|-2-2-----------|-------2-
D 4-4-0-0-0-0-|-2-2-0-2-2-2-0-|-4-4-0-0-0-0-|-2-2-0-2-2-2-0-|-4-4-0-0-
A 4-4-0-----0-|-0-0-0-2-2-2-0-|-4-4-0-----0-|-0-0-0-2-2-2-0-|-4-4-0---
E 2-2-0-------|-----0-0-0-0-0-|-2-2-0-------|-----0-0-0-0-0-|-2-2-0---

E ----|---------------|-------------|---------0-0-0-|-0-0-0-0---0-0-0-
B 3---|---------------|-------3-3---|-------4-0-0-0-|-0-0-0-0-4-0-0-0-
G 2-0-|-2-2-----------|-------2-2-0-|-2-2---3-------|---------3-------
D 0-0-|-2-2-0-2-2-2-0-|-4-4-0-0-0-0-|-2-2-0-1-2-2-2-|-2-2-2-2-1-2-2-2-
A --0-|-0-0-0-2-2-2-0-|-4-4-0-----0-|-0-0-0---------|-----------------
E ----|-----0-0-0-0-0-|-2-2-0-------|-----0---------|-----------------

E |-0-0-----|-------------|-------------|-------------|-------------|-
B |-0-0-3---|-------------|-------3-3-0-|-------------|-3-3---------|-
G |-----2-0-|-2-2-0-------|-2-2-0-2-2-0-|-2-2-0-------|-2-2-0-------|-
D |-2-2-0-0-|-2-2-0-2-2-0-|-2-2-0-0-0-0-|-2-2-0-2-2-0-|-0-0-0-2-2-0-|-
A |-------0-|-0-0-0-2-2-0-|-0-0-0-------|-0-0-0-2-2-0-|-----0-2-2-0-|-
E |---------|-------0-0-0-|-------------|-------0-0-0-|-------0-0-0-|-

E ------------|-------------|-------0-0---|-------------|-------------
B ------------|-------3-3-0-|-------0-0-0-|-------------|-------------
G 2-2-0-------|-2-2-0-2-2-0-|-2-2-0-----0-|-2-2-2-2-2-2-|-2-2-0-------
D 2-2-0-2-2-0-|-2-2-0-0-0-0-|-2-2-0-2-2-0-|-2-2-2-2-2-2-|-2-2-0-2-2-0-
A 0-0-0-2-2-0-|-0-0-0-------|-0-0-0-------|-0-0-0-0-0-0-|-0-0-0-2-2-0-
E ------0-0-0-|-------------|-------------|-------------|-------0-0-0-

E |-------------|-------------|-------------|-------------|-----------
B |-------3-3-0-|-------------|-3-3---------|-------------|-------3-3-
G |-2-2-0-2-2-0-|-2-2-0-------|-2-2-0-------|-2-2-0-------|-2-2-0-2-2-
D |-2-2-0-0-0-0-|-2-2-0-2-2-0-|-0-0-0-2-2-0-|-2-2-0-2-2-0-|-2-2-0-0-0-
A |-0-0-0-------|-0-0-0-2-2-0-|-----0-2-2-0-|-0-0-0-2-2-0-|-0-0-0-----
E |-------------|-------0-0-0-|-------0-0-0-|-------0-0-0-|-----------
[ Tab from: http://www.guitartabs.cc/tabs/g/green_day/the_grouch_tab_ver_3.html ]
E --|-------0-0---|-------------|-------------|---------------|-------
B 0-|-------0-0-0-|-------------|-------3-3---|---------------|-------
G 0-|-2-2-0-----0-|-2-2-2-2-2-2-|-------2-2-0-|-2-2-----------|-------
D 0-|-2-2-0-2-2-0-|-2-2-2-2-2-2-|-4-4-0-0-0-0-|-2-2-0-2-2-2-0-|-4-4-0-
A --|-0-0-0-------|-0-0-0-0-0-0-|-4-4-0-----0-|-0-0-0-2-2-2-0-|-4-4-0-
E --|-------------|-------------|-2-2-0-------|-----0-0-0-0-0-|-2-2-0-

E ------|---------------|-------------|---------------|-------------|-
B 3-3---|---------------|-------3-3---|---------------|-------3-3---|-
G 2-2-0-|-2-2-----------|-------2-2-0-|-2-2-----------|-------2-2-0-|-
D 0-0-0-|-2-2-0-2-2-2-0-|-4-4-0-0-0-0-|-2-2-0-2-2-2-0-|-4-4-0-0-0-0-|-
A ----0-|-0-0-0-2-2-2-0-|-4-4-0-----0-|-0-0-0-2-2-2-0-|-4-4-0-----0-|-
E ------|-----0-0-0-0-0-|-2-2-0-------|-----0-0-0-0-0-|-2-2-0-------|-

E --------0-0-0-|-0-0-0-0---0-0-0-|-0-0-----|-0-0-0-0-0-0-|-2-2-0-0-0-
B ------4-0-0-0-|-0-0-0-0-4-0-0-0-|-0-0-3---|-------------|-5-5-------
G 2-2---3-------|---------3-------|-----2-0-|-------------|-----------
D 2-2-0-1-2-2-2-|-2-2-2-2-1-2-2-2-|-2-2-0-0-|-------------|-----------
A 0-0-0---------|-----------------|-------2-|-------------|-----------
E ----0---------|-----------------|---------|-------------|-----------

E 0-|-0-0-0-0-0-0-|-0-0-0-0-0-0-0-|-0-0-0-0-0-0-0-|-0-0-0-0-|-0-2-0-0-
B --|-------------|-3-3-----------|-0-2-2-2-2-0---|-2-3-3---|-2-5-5-3-
G --|-------------|---------------|-------------2-|-------2-|---------
D --|-------------|---------------|---------------|---------|---------
A --|-------------|---------------|---------------|---------|---------
E --|-------------|---------------|---------------|---------|---------

E 0-|-0-0-0-0-0-0-|-2-2-2-2-2-2-|-0-0-0-0-0-0-|-2-2-2-2-2-2-2-2-|-0-0-
B 0-|-2-2-2-2-2-0-|-2-2-2-3-3-3-|-2-2-2-0-0-0-|-2-2-2-2-3-3-3-3-|-2-2-
G --|-2-2-2-2-2-0-|-2-2-2-2-2-2-|-2-2-2-1-1-1-|-2-2-2-2-2-2-2-2-|-2-2-
D --|-------------|-4-4-4-4-4-4-|-2-2-2-2-2-2-|-4-4-4-4-4-4-4-4-|-2-2-
A --|-------------|-------------|-------------|-----------------|-----
E --|-------------|-------------|-------------|-----------------|-----

E 0-0-4-5-5-5-|-2-2-2-2-2-2-|-0-0-0-0-0-0-|-2-2-2-2-2-2-2-2-|-0-0-0-0-
B 2-2-5-5-5-5-|-2-2-2-3-3-3-|-2-2-2-0-0-0-|-2-2-2-2-3-3-3-3-|-2-2-2-2-
G 2-2-2-2-2-2-|-2-2-2-2-2-2-|-2-2-2-1-1-1-|-2-2-2-2-2-2-2-2-|-2-2-2-2-
D 2-----------|-4-4-4-4-4-4-|-2-2-2-2-2-2-|-4-4-4-4-4-4-4-4-|-2-2-2-2-
A ------------|-------------|-------------|-----------------|---------
E ------------|-------------|-------------|-----------------|---------

E --0-0-0-|-0-0-0-0---2-2-2-|-4-4-5-5--|------|------|------|------|--
B 4-0-0-0-|-0-0-0-0-4-5-5-5-|-5-5-3----|------|------|------|------|--
G 3-------|---------3-4-4-4-|-4-4-2-0--|------|------|------|------|-2
D 1-2-2-2-|-2-2-2-2-1-4-4-4-|-6-6-0-0--|------|------|------|------|-2
A --------|-----------7-7-7-|-7-7---0--|------|------|------|------|-0
E --------|-----------------|-------17-|------|------|------|------|--

E -----------|-------------|-------0-0---|-------------|-------------|
B -----------|-------3-3-0-|-------0-0-0-|-------------|-------------|
G -2-0-------|-2-2-0-2-2-0-|-2-2-0-----0-|-2-2-2-2-2-2-|-2-2-0-------|
D -2-0-2-2-0-|-2-2-0-0-0-0-|-2-2-0-2-2-0-|-2-2-2-2-2-2-|-2-2-0-2-2-0-|
A -0-0-2-2-0-|-0-0-0-------|-0-0-0-------|-0-0-0-0-0-0-|-0-0-0-2-2-0-|
E -----0-0-0-|-------------|-------------|-------------|-------0-0-0-|

E -------------|-------------|-------------|-------------|------------
B -------3-3-0-|-------------|-3-3---------|-------------|-------3-3-0
G -2-2-0-2-2-0-|-2-2-0-------|-2-2-0-------|-2-2-0-------|-2-2-0-2-2-0
D -2-2-0-0-0-0-|-2-2-0-2-2-0-|-0-0-0-2-2-0-|-2-2-0-2-2-0-|-2-2-0-0-0-0
A -0-0-0-------|-0-0-0-2-2-0-|-----0-2-2-0-|-0-0-0-2-2-0-|-0-0-0------
E -------------|-------0-0-0-|-------0-0-0-|-------0-0-0-|------------

E -|-------0-0---|-------------|-------0-0---|-------------|-------0--
B -|-------0-0-0-|-------------|-------0-0-0-|-------------|-------0-3
G -|-2-2-0-----0-|-2-2-2-2-2-2-|-2-2-0-----0-|-2-2-2-2-2-2-|-2-2-0---2
D -|-2-2-0-2-2-0-|-2-2-2-2-2-2-|-2-2-0-2-2-0-|-2-2-2-2-2-2-|-2-2-0-2-0
A -|-0-0-0-------|-0-0-0-0-0-0-|-0-0-0-------|-0-0-0-0-0-0-|-0-0-0----
E -|-------------|-------------|-------------|-------------|----------

E ---|-----------------|---|---|
B -3-|-3-3-3-3-3-3-3-3-|-2-|---|
G -2-|-2-2-2-2-2-2-2-2-|-2-|-2-|
D -0-|-0-0-0-0-0-0-0-0-|-2-|-2-|
A ---|-----------------|-0-|-0-|
E ---|-----------------|---|---|
Comments