Green Day - The Grouch Chords & Tabs

 

The Grouch Chords & Tabs

Green Day Chords & Tabs

Version: 4 Type: Bass Tab 0 ratings
1 star 2 stars 3 stars 4 stars 5 stars
comments

The Grouch Bass Tab

   
----------------------------------------------------------------------------
			     The Grouch - Green Day
----------------------------------------------------------------------------


Tuning:  Standard - GDAE

Intro - Start after Guitar at About 8 seconds
G|------------------------------------------------------------------------|
D|------------------------------------------------------------------------|
A|------------------55------77-7h9----------------------------------------|
E|---02-05--00--55------55----------555555575-----------------------------|

Verse
G|------------------------------------------------------------------------|
D|------------------------------------------------------------------------|
A|-----------55----------55---------------------55------77-7h9------------|
E|---00--55------55--00------55--02-05--00--55------55----------55555555--|

Chorus
G|------------------------------------------------------------------------>
D|------------------------------------44-2-------------------------------->
A|-------55-----------------555------------2----55----------------555----->
E|---02------55-02-04-0-22-------555---------2------55-02-04-0-22------555>
[ Tab from: http://www.guitartabs.cc/tabs/g/green_day/the_grouch_btab_ver_4.html ]
G>------------------------------------------------------------------------|
D>------------------------------------------------------------------------|
A>---6h7777777-6h7777777--------------------------------------------------|
E>------------------------------------------------------------------------|

During Guitar Solo
G|------------------------------------------------------------------------>
D|------------------------------------------------------------------------>
A|-----------55-------55----------------55--77-7h9--------------55-------->
E|---5-00-55----55-00----55-02-05-00-55------------55555555--02----55----->

G>------------------------------------------------------------------------|
D>-------------------44-2-------------------------------------------------|
A>-----------555----------2---55---------------555-----6h7777777-6h7777777|
E>02-04-0-22-----555--------2----55-02-04-0-22-----555--------------------|

Outro
G|------------------------------------------------------------------------|
D|----------------------------------------------------------7-------------|
A|-----77-7h9-----------77-7h9-----------77-7h9-555555555-7---------------|
E|---5--------555555555--------555555555----------------------5~---5------|


Order: Intro x1
       Verse x1
       Chorus x1
       Verse x2
       Chorus x1
       Solo x1
       Intro x1
       Verse x1
       Outro x1


| /  slide up
| \  slide down
| h  hammer-on
| p  pull-off
| ~  vibrato
| +  harmonic
| x  Mute note
============================================================================
Comments