Green Day - The Forgotten Chords & Tabs

 

The Forgotten Chords & Tabs

Green Day Chords & Tabs

Version: 1 Type: Tab 0 ratings
1 star 2 stars 3 stars 4 stars 5 stars
comments

The Forgotten Tab

1st tab, and it sounds right to me.  Enjoy.
Title: The Forgotten
Artist: Green Day
Album: íTre!

[ Tab from: http://www.guitartabs.cc/tabs/g/green_day/the_forgotten_tab.html ]
E-------------------------------------------------------------------------|
B-------------------------------------------------------------------------|
G----------------------------------------------9--11--11----9-------------|
D--------11-9----9-----9h11--9-------------11--------------------11-------|
A--/12--------12----------------12--9-------------------------------------|
E-------------------------------------------------------------------------|


E---------------------------------------|
B---------------------------------------|
G----------------------------9----------|
D-11h12--11--9--------------------------|  All this x2
A------------------12-10-11-------------|
E---------------------------------------|
Comments