Green Day - The Ballad Of Wilhelm Fink Chords & Tabs

 

The Ballad Of Wilhelm Fink Chords & Tabs

Green Day Chords & Tabs

Version: 1 Type: Bass Tab 0 ratings
1 star 2 stars 3 stars 4 stars 5 stars
comments

The Ballad Of Wilhelm Fink Bass Tab

The Ballad Of Wilhelm Fink - Green Day
tabbed by: ryan b

there's no bass in this song, but that doesn't mean there can't be!

Riff A: (once)
A-----------55555555-33333333--------5555--
E--33333333--------------------3333--------
[ Tab from: http://www.guitartabs.cc/tabs/g/green_day/the_ballad_of_wilhelm_fink_btab.html ]
Riff B: (once)
A-----------55555555-3333-5555-----------
E--33333333--------------------33333333--

Riff C: (once)
A--3-33--------5-55--------
E--------3-33--------3-33--

Riff D: (once)
A--3-33--------------5555-----
E--------3-33--1111--------3--
Comments