Green Day - Take Back Chords & Tabs

 

Take Back Chords & Tabs

Green Day Chords & Tabs

Version: 5 Type: Bass Tab 0 ratings
1 star 2 stars 3 stars 4 stars 5 stars
comments

Take Back Bass Tab

Verse
G|---------------------------------------------------------------------------|
D|---------------------------------------------------------------------------|
A|---------------------------------------------------------------------------|
E|--3--3--3--3--3--3--1--1--1--4--4--4--3--3--3--3--3--3--1--1--1--4--4--4---|
[ Tab from: http://www.guitartabs.cc/tabs/g/green_day/take_back_btab_ver_5.html ]
Chorus
G|---------------------------------------------------------------------------|
D|---------------------------------------------------------------------------|
A|-----------------------------3--3--3-----------------------------3--3--3---|
E|--3--3--3--3--3--3--2--2--2-----------3--3--3--3--3--3--2--2--2------------|

Last Stand
G|---------------------------------------------------------------------------|
D|---------------------------------------------------------------------------|
A|---------------------------------------------------------------------------|
E|----3--------------------------------------------------3--3----------------|


Order

Verse x4
Chorus
Verse x4
Chorus x2
Verse x2
Last Stand
Comments