Green Day - Stuck With Me Chords & Tabs

 

Stuck With Me Chords & Tabs

Green Day Chords & Tabs

Version: 2 Type: Tab 0 ratings
1 star 2 stars 3 stars 4 stars 5 stars
comments

Stuck With Me Tab

Stuck With Me by Green Day.
Album: Green Day - Insomniac (1995).
Any Questions or Coments send me to Briets@email.ru
:
:       
# Intro # Play X2    
E-------------------------------------------------------|
B-------------------------------------------------------|
G-9-9-9-9-9---------------------------------------------|
D-9-9-9-9-9-11-9-9-7-7-7-7------------------------------|
A-7-7-7-7-7-11-9-9-7-7-7-7------------------------------|
E------------9-7-7-5-5-5-5------------------------------|
>
# Verse # Play X2  P-M=palm-mute  (P-M Only first time)
E-------------------------------------------------------|
B-------------------------------------------------------|
G-9-9-9-9-9---------------------------------------------|
D-9-9-9-9-9-9-9-9-9-7-7-7-9-9-9-7-7-7-9-9-9-------------|
A-7-7-7-7-7-9-9-9-9-7-7-7-9-9-9-7-7-7-9-9-9-------------|
E-----------7-7-7-7-5-5-5-7-7-7-5-5-5-7-7-7-------------|
>  \_P-M_/
>
#  Chorus # Play X3                              # End chorus # 
E-------------------------------------------| >  |-----------------------|
B-------------------------------------------| >  |-----------------------|
G---------------------------9-9-9-9-9-9-----| >  |--------------9-9-9-9--|
D--11-11-11-11-11-11-11-7-7-9-9-9-9-9-9-----| >  |--7-7-7-9-9-9-9-9-9-9--|
A--11-11-11-11-11-11-11-7-7-7-7-7-7-7-7-----| >  |--7-7-7-9-9-9-7-7-7-7--|
E---9--9--9--9--9--9--9-5-5-----------------| >  |--5-5-5-7-7-7----------|
>
Play # Verse # X2 (first time without pm,second with pm),# Chorus # X3,# End chorus #, >>>
>>> # Intro # X4
>
# Bridge # X2(Chords 799xxx/133xxx\799xxx) with Bass solo     
E-----------------------|
B-----------------------|
G-----------------------|               
D---x-x-x-x-x-x-x-x-x---|
A---x-x-x-x-x-x-x-x-x---|
E---x-x-x-x-x-x-x-x-x---|

Play # Chorus # X3,# End chorus #

Tabbed by Briets(Andrei)

Lyrics

I'm not part of your elite
I'm just alright
Class structures waving colours
Bleeding from my throat
Not subservient to you
I'm just alright
Downclassed by the powers that be
Give me loss of hope

Cast out, buried in a hole
Struck down, forcing me to fall
Destroyed, giving up the fight		
Well I know I'm not alright

What's my price and will you pay it?
If it's alright
Take it from my dignity
Waste it till it's dead
Throw me back into the gutter
Cuz it's alright
Find another pleasure fucker
Drag him down to hell

[ Tab from: http://www.guitartabs.cc/tabs/g/green_day/stuck_with_me_tab_ver_2.html ]
Comments