Green Day - Stuck With Me Chords & Tabs

 

Stuck With Me Chords & Tabs

Green Day Chords & Tabs

Version: 6 Type: Bass Tab 0 ratings
1 star 2 stars 3 stars 4 stars 5 stars
comments

Stuck With Me Bass Tab

Tuning: Half Step Down (Eb,Ab,Db,Gb). This song had many imperfections ont he other 
so I decided to tab it myself.

Mike Dirnt uses a pick in this song (as he always does)

Legend:

x= pause mute
p= pull-off

Intro:

Gb:-----------------------------------------------------------------------|
Db:-----------------7x5x4x5-7p5p4---------11-9-x-77-55-44-55-77-55-44-5---|
Ab:-7777777-4-2-00---------------7777777----------------------------------|
Eb:-----------------------------------------------------------------------|

verse:

Gb:-------------------------------------------------|
Db:-------------------------------------------------|
Ab:7777777777---------------------------------------|
Eb:----------7777777777-555555-777777-555555-777777-|

chorus:

Gb:-------------------------99-----------------------------------------------|
Db:--------------------99--------99--9---------------------------------------|
Ab:-44444444444-----77----77---77--77--44444444444---777777-9-7-6-6-7-7-4444-|
Eb:-------------55----------------------------------55-----------------------|
[ Tab from: http://www.guitartabs.cc/tabs/g/green_day/stuck_with_me_btab_ver_6.html ]
----------------------------------------------------|
----------------------------------------------------|
-444444--777777------------------------7777777777777|
-------55-------9-7-6-6-77-55555-77777--------------|

Bridge:

Gb:-------------------------------------------------------------------------|
Db:-------------------7-5-4-5p4-------------------7x5x4x5-7p5p4-------------|
Ab:-7777777-4-2-00000-------------7777777-4-2-00----------------------------|
Eb:-------------------------------------------------------------------------|

----------------------------------------------------------------|
------------------14-12-11-12p11------------------7x5x4x5-7p5p4-|
-7777777-4-2-00000---------------7777777-4-2-00000--------------|
----------------------------------------------------------------|

solo:

Gb:-----------------------------------------------------------------|
Db:----------6-7-8-9-7-6----------------------------9-7-6-----------|
Ab:----6-7-9-------------9-7-6--------6-7-9-7-6-----------9-7-6-----|
Eb:-9-7------------------------9-8-7-9----------9-7-------------9-7-|

Song Order:

Intro
Verse (2X)
Chorus
Verse (2X)
Chorus
Bridge
Chorus
Comments