Green Day - Stuck With Me Chords & Tabs

 

Stuck With Me Chords & Tabs

Green Day Chords & Tabs

Version: 5 Type: Bass Tab 0 ratings
1 star 2 stars 3 stars 4 stars 5 stars
comments

Stuck With Me Bass Tab

   
Green Day- Stuck With Me
Album: Insomniac/International Superhits
Tuning: Half Step Down, Gb Db Ab Eb

The chorus has 2 particular parts i wasnt sure about and the bridge is a little bit
difficult to transcribe but at least i know i got the intro right compared to other
tabs i looked at. If you can figure it out please submit your own version.

Key:
p= pull-off
h= hammer on

Intro 0:00-0:10
Gb--------------------------------------------------------------------------|
Db------------7-5-4h5p4-5-7-----------11-9--77-55-44-55-77-55-44-5----------|
Ab--77777-4-2---------------77777-4-2-----------------------------7777777---|
Eb--------------------------------------------------------------------------|

Verse 0:10- 0:29/:30
Gb------------------------------------------------|
Db------------------------------------------------|
Ab---7777777--------9-------------9---------------|
Eb-----------7777777--55555-77777--55555-777777---|

Chorus 0:30- 0:50
Gb---------------------99-----99---------------------------|
Db--------6---------99-----99-------6----------------------|
Ab---44444-------77---7--77--7--4444------77777-7-66-77-9--|
Eb----------5555----------------------5555-----------------|
                                                 
Gb----------------------------------------------|
Db-------6--------------------------------------|
Ab--44444-----7777-7-66-44--------------7777777-|
Eb--------5555-------------7--55555-7777--------|
                   
Verse 0:50- 1:09
Gb-------------------------------------------------|
Db-------------------------------------------------|
Ab---7777777--------9------------9-----------------|
Eb-----------7777777-55555-77777-55555-777777----|
[ Tab from: http://www.guitartabs.cc/tabs/g/green_day/stuck_with_me_btab_ver_5.html ]
Chorus 1:09- 1:29
Gb---------------------99-----99---------------------------|
Db--------6---------99-----99-------6----------------------|
Ab---44444-------77---7--77--7--4444------77777-7-66-77-9--|
Eb----------5555----------------------5555-----------------|
                                                  
Gb----------------------------------------------|
Db-------6--------------------------------------|
Ab--44444-----7777-7-66-44--------------7777777-|
Eb--------5555-------------7--55555-7777--------|

Bridge  1:29- 1:47
Gb--------------------------------------------------------------6h7-6-7h6--->
Db------------------6h7---------------7-5-4-6h7----------------------------->
Ab--777777-4-2-00000----77777-4-2-00-0-0-0-------77777-4-2-00000------------>
Eb-------------------------------------------------------------------------->

Gb------------------------------|
Db------------------7-5-4-6h7---|
Ab---77777-4-2-000-0-0-0--------|
Eb------------------------------|

Bass Solo "1,2,3,4"  1:47- 1:52/53
Gb-----------------------------------------------------------------|
Db---------6-7-8-9--7-6---------------------------9-7-6------------|
Ab----6-7-9------------9-7-6----------6-7-9-7-6--------9-7-6-------|
Eb-7-9----------------------9-8-7--7-9---------9-7-----------9-8-7-|

Ending 1:53- 2:13
Gb--------------------99-----99------------------------------>
Db--------6--------99-----99--------6------------------------>
Ab---44444-------77--7-77--7--4444-------77777-7-66-77-9---->
Eb----------5555----------------------5555------------------->

Gb----------------------------------------------|
Db-------6--------------------------------------|
Ab--44444-----7777-7-66-44--------------7777777-|
Eb--------5555-------------7--55555-7777--------|
Comments