Green Day - Stuck With Me Chords & Tabs

 

Stuck With Me Chords & Tabs

Green Day Chords & Tabs

Version: 3 Type: Bass Tab 0 ratings
1 star 2 stars 3 stars 4 stars 5 stars
comments

Stuck With Me Bass Tab

   
Song: Stuck With Me
Artist: Green Day
Album: Insomniac
Tabbed by: Scott Sherman
Tune: E to Eb

Intro
G-------------------------------------------------------------------|
D-------------------7-5-4h5p457------------11-9-77755445577554455---|
A-7-7-777-777----00--0-0-------07-7-777-777----------------------7\-|
E------------9-7----------------------------------------------------|

Verse
G-------------------------------------------------------------->
D------------------------------------7--------------7---------->
A-------------------------------------------------------------->
E---------------7-7-7777-77-77775-555-7-777-7775-555-7-777-777->

>--------------------------------------------------------------|
>------------------------------------7--------------7----------|
>-7-77-7-7-7-777-----------------------------------------------|
>---------------7-7-7777-77-77775-555-7-777-7775-555-7-777-777-|

Chorus
G-----------------------99------99--------------------------------->
D-----------6-------99------99--------------6---------------------->
A-4-4-4444-4-0-00077---7--77---7--4-4-4444-4-0-0007-7-7777-7667799->
E------------------------------------------------------------------>

>--------------------------------------------------|
>-----------6---------------------------7----------|
>-4-4-4444-4-0-0007-7-7777-75544-------------------|
>-------------------------------775-5555-57-777777-|
[ Tab from: http://www.guitartabs.cc/tabs/g/green_day/stuck_with_me_btab_ver_3.html ]
Chorus-Out X=Stop
G--------------X
D--------------X
A-7777777777777X
E--------------X

Verse2-2x
G--------------------------------------------------------------|
D------------------------------------7--------------7----------|
A-7-77-7-7-7-777-----------------------------------------------|
E---------------7-7-7777-77-77775-555-7-777-7775-555-7-777-777-|

THEN Play Chorus, thenÖ
Bridge
G-------------------------------------------------------------->
D-------------------7-5-4h5p457-------------------7-5-4h5p457-->
A-77777777777----00--0-0-------07-7-777-777----00--0-0-------0->
E------------9-7---------------------------9-7----------------->

>-----------------------4h5p457-------------------------------|
>-------------------7-5---------------------------7-5-4h5p457-|
>-7-7-777-777----00--0-0-------07-7-777-777----00--0-0--------|
>------------9-7---------------------------9-7----------------|

Bridge-Run (Itís actually played like this)
G----------------------------------|
D------456754--------------7654----|
A---457------754----45754------75--|
E-57------------7557-----75------7-|

Bridge-Run (But I like to play it like this. Itís a little easier)
G-------0120---------------210-----|
D----024----420------020------420--|
A-024----------420024---420------2-|
E----------------------------------|

THEN Play Chorus and Chorus-Out
END
Comments or corrections mail me at shermdog17@yahoo.com
Check out my band at www.geocities.com/thecause_ifanything/punk.html
Comments