Green Day - Stuart And The Ave Chords & Tabs

 

Stuart And The Ave Chords & Tabs

Green Day Chords & Tabs

Version: 3 Type: Bass Tab 0 ratings
1 star 2 stars 3 stars 4 stars 5 stars
comments

Stuart And The Ave Bass Tab

   
Stuart and ave bass tab
Intro
g------------------------------------------------
d-0-0-0-4-2-0-2222222-4-5-------57-5-4--------
a------------------------------5----------7-5-4-- 
e--------------------------3-3-----------------7-
 
g-----------------------------------------
d---------------------------5-------------
a5-5-4-5-4---------------5---------------
e-----------0-0-0-0-03-3-----5-5-5-5-5-5-
 verse
g----------------------------------------------------
d-0-0-0-4-2-0-2222222-4-5-5-5-5-5-5-5-5-7-7-7-7-7-7-
a----------------------------------------------------
e----------------------------------------------------
g------------------------------------------------------
d-0-0-0-4-2-0-2222222-4-5-5-5-5-5-5-5-5-7-7-7-7-5-4-0-
a------------------------------------------------------
e------------------------------------------------------
 
chorus
g----------------|---------------------------------------------------------
d----4-2---------|0-0-0-4-2-0-2-2-2-2-2-2-4-5-5-5-5-5-50-0-0-0-0----------
a-55-----4-------|-----------------------------------------------0-0-0-0-0-
e----------33333-|---------------------------------------------------------
bridge
g----------------------------------------------------
d-0-0-0-4-2-0-2222222-4-5-5-5-5-5-5-5-5-7-7-7-7-7-7-
a----------------------------------------------------
e----------------------------------------------------
 
g--------------------------------------------------------
d-0-0-0-4-2-0-2222222-4-5-5-5-5-5-5-5-5-7-5-4-----------
a----------------------------------------------7-5-4-----
e----------------------------------------------------7-5-
 
g----------------------------------------------------
d-0-0-0-4-2-0-2222222-4-5-5-5-5-5-5-5-5-7-7-7-7-7-7-
a----------------------------------------------------
e----------------------------------------------------
g----------------------------------------------------
d-0-0-0-4-2-0-2222222-4-5-5-5-5-5-5-5-5-7-7-7-7-7-7-
a----------------------------------------------------
e----------------------------------------------------
outro
 
g-------------------------------
d-0-0-0-0-0-0-0-----------------rpt to end
a----------------0-0-0-0-0-0-0--
e-------------------------------
Kirk
====
[ Tab from: http://www.guitartabs.cc/tabs/g/green_day/stuart_and_the_ave_btab_ver_3.html ]
Comments