Green Day - Strangeland Chords & Tabs

 

Strangeland Chords & Tabs

Green Day Chords & Tabs

Version: 1 Type: Bass Tab 0 ratings
1 star 2 stars 3 stars 4 stars 5 stars
comments

Strangeland Bass Tab

		Strangeland bass tabVerse

G--------------------------|-------------------------------
D--------------4-5-4-5-4-5-|-------------------------------
A-5-5-5-5-5-5--------------|-0--0-0-0-0----0---0-0-0-0---0-
E--------------------------|------------3--------------3---


Chorus
[ Tab from: http://www.guitartabs.cc/tabs/g/green_day/strangeland_btab.html ]
G--------------------------------------------------------------
D--------------------------------------------------------------
A------------5-5-5-5-5-4-5-4-5-4-------------------------------
E--3-3-3-3-3---------------------3-3-3-3-3-5-5-5-5-5-4-5-4-5-4-

Bridge is verse

The verse varies the sencond time, listen for the changes, this riff
is at the end of the 2nd verses, bridge and outro.

G------------------------------
D----------------4-5-4-5-7-5-4-
A--5-5-5-5-5-5-5---------------
E------------------------------
====
Comments