Green Day - Stay The Night Chords & Tabs

 

Stay The Night Chords & Tabs

Green Day Chords & Tabs

Version: 2 Type: Bass Tab 0 ratings
1 star 2 stars 3 stars 4 stars 5 stars
comments

Stay The Night Bass Tab

Intro

G|-----------------------------------------|
D|-----------------------------------------|
A|--5-5555555-------5-55-------------------|
E|-------------5-55------3-3333-5-5555555--|

G|-----------------------------------------|
D|-----------------------5-5555-7-7777777--|
A|--5-5555555-------5-55-------------------| x2
E|-------------5-55------------------------|

Verse

G|--------------------------------------|
D|--------------------------------------|
A|--5(x15)----------5(x15)--------------| x2
E|----------3(x15)---------3(x7)-5(x7)--|


Pre-chorus

G|---------------------------------------------------------------------------------|
D|---------0-4------555-------54------------------0-4------555-------54------------|
A|--2-2-2---------------5-555----0-00-542-02-2-2--------------5-555----00-12(x13)--|
E|-------------3-33-----------------------------------3-33-------------------------|


Chorus x2

G|-----------------------------------------|
D|-----------------------------------------|
A|--5-5555555-------5-55-------------------| 
E|-------------5-55------3-3333-5-5555555--|


G|-----------------------------------------|
D|-----------------------5-5555-7-7777777--|
A|--5-5555555-------5-55-------------------| 
E|-------------5-55------------------------|



Verse

G|-----------------------------------------|
D|-----------------------------------------|
A|--5-5555555-------5-55-------------------| 
E|-------------5-55------3-3333-5-5555555--|

G|--------------------------------------|
D|--------------------------------------|
A|--5(x15)----------5(x15)--------------| x2
E|----------3(x15)---------3(x7)-5(x7)--|


Pre-chorus

G|---------------------------------------------------------------------------------|
D|---------0-4------555-------54------------------0-4------555-------54------------|
A|--2-2-2---------------5-555----0-00-542-02-2-2--------------5-555----00-12(x13)--|
E|-------------3-33-----------------------------------3-33-------------------------|


Chorus x2

G|-----------------------------------------|
D|-----------------------------------------|
A|--5-5555555-------5-55-------------------| 
E|-------------5-55------3-3333-5-5555555--|

[ Tab from: http://www.guitartabs.cc/tabs/g/green_day/stay_the_night_btab_ver_2.html ]
G|-----------------------------------------|
D|-----------------------5-5555-7-7777777--|
A|--5-5555555-------5-55-------------------| 
E|-------------5-55------------------------|


Bridge 

G|--------11-------|
D|--0--------12----|
A|--------------12-|
E|-----------------|

G|---------11---------------------|
D|--0---------12-------11-11-12-14-|
A|---------------12----------------|
E|-------------------------------|

G|---------14-12-11--------11-12------|
D|--0---------------------------------|
A|--------------------10-10-----------|
E|------------------------------------|

G|---------------------|
D|--11-11-12-14-12-11--|
A|---------------------|
E|---------------------|

G|-----------------------------------------|
D|-----------------------------------------|
A|--5-5555555-------5-55-------------------| x4
E|-------------5-55------3-3333-5-5555555--|

G|----------------------------|
D|----------------------------|
A|--2--2/10---10-5-4-0--------| 
E|---------------------5-3-2--|

G|------------------------------|
D|---------------------7-5-4----|
A|--2--2/10---10--5-4-0---------| 
E|------------------------------|

G|----------------------------|
D|----------------------------|
A|--2--2/10---10-5-4-0--------| 
E|---------------------5-3-2--|

G|----------------------------|
D|---------------------7(x13)-|
A|--2--2/10---10-5-4-0--------| 
E|----------------------------|



Chorus x2

G|-----------------------------------------|
D|-----------------------------------------|
A|--5-5555555-------5-55-------------------| 
E|-------------5-55------3-3333-5-5555555--|



G|-----------------------------------------|
D|-----------------------5-5555-7-7777777--|
A|--5-5555555-------5-55-------------------| 
E|-------------5-55------------------------|


Outro

G|--------11-------|
D|--0--------12----|
A|--------------12-|
E|-----------------|

G|---------11----------------------|
D|--0---------12-------11-11-12-14-|
A|---------------12----------------|
E|---------------------------------|

G|---------11----------------11-12------|
D|--0---------12------------------------|
A|---------------12----10-10------------|
E|--------------------------------------|

G|---------------------|
D|--11-11-12-14-12-11--|
A|---------------------|
E|---------------------|


End

G|-----|
D|-----|
A|--5--|
E|-----|
Comments