Green Day - St Jimmy Chords & Tabs

 

St Jimmy Chords & Tabs

Green Day Chords & Tabs

Version: 5 Type: Tab 0 ratings
1 star 2 stars 3 stars 4 stars 5 stars
comments

St Jimmy Tab

   
_________________________________________________________________
                                                                |
St. Jimmy                                                       |
________________________________________________________________|
                                                                |
Track: 6                                                        |
Album On: American Idiot (2004)                                 |
Artist: Green Day                                               |
Tabber: Insomniac_123                                           |
----------------------------------------------------------------|

@@@@@@@@@@@@@@@@@@@@@@@@@@@@@
----------------------------|
Key: (throughout)           |
P.M. # (Palm Mute)          |
x. (Scratch/muted string)   |
~. (Let ring)               |
*. (Harmonic)               |
/. (Forward Slide)          |
\. (Downward Slide)         |
                            |
----------------------------|
@@@@@@@@@@@@@@@@@@@@@@@@@@@@|

******************
Notes + Updates
******************

* I have included all the strumming patterns.
* I have included all lyrics between the tabs.
* And also I have wrote everything what happens in the song so that means all the verses etc.
* E-mail: flame1996@live.com.
          Don't send me any hate mail or anything you know is unacceptable.
          Thank you.

You can use pick scrapes on this song. (get your pick, and from the bridge,
Slide down from it to the bottom! You get nice effects.

I hope you like it!

---------------
UPDATE! TWO
---------------

Final clean-up of this tab. Got rid of all the mistakes, the tab is now mistake free!
Enjoy reading!

------------------------------------------------------------

INTRO:

There are two guitar tracks.

Guitar One:

E||------------------||
B||------------------||
G||------------------||
D||-7----------------||
A||-7----------------||
E||-5----------------||

Guitar Two:

E||----------------------------------------||
B||----------------------------------------||
G||----------------------------------------||
D||----------------------------------------||
A||-0000-0000-0000-0000-0000-0000-0000-000-||
E||----------------------------------------||
P.M.#### #### #### #### #### #### #### ###

Guitar One:

E||------------------||
B||------------------||
G||-7----------------||
D||-7-7--------------||
A||-5-7--------------||
E||---5--------------||

Guitar Two:

St. Jimmyís coming down across the alleyway 
E||----------------------------------------||
B||----------------------------------------||
G||----------------------------------------||
D||----------------------------------------||
A||-0000-0000-0000-0000-0000-0000-0000-000-||
E||----------------------------------------||
P.M.#### #### #### #### #### #### #### ###

Guitar One:

E||------------------||
B||------------------||
G||-7----------------||
D||-7-7--------------||
A||-5-7--------------||
E||---5--------------||

Guitar Two:

Upon the boulevard like a zip gun on parade
E||----------------------------------------||
B||----------------------------------------||
G||----------------------------------------||
D||----------------------------------------||
A||-0000-0000-0000-0000-0000-0000-0000-000-||
E||----------------------------------------||
P.M.#### #### #### #### #### #### #### ###

Guitar One:

E||------------------||
B||------------------||
G||-7----------------||
D||-7-7--------------||
A||-5-7--------------||
E||---5--------------||

Guitar Two:

Light of a silhouette 
E||-----------------||
B||-----------------||
G||-----------------||
D||-----------------||
A||-0000-0000-00000-||
E||-----------------||
P.M.#### #### #####

Guitar One:

E||------------------||
B||------------------||
G||-7----------------||
D||-7-7--------------||
A||-5-7--------------||
E||---5--------------||

Heís insubordinate
E||-----------------||
B||-----------------||
G||-----------------||
D||-----------------||
A||-0000-0000-00000-||
E||-----------------||
P.M.#### #### #####

Guitar One:

E||-----------------||
B||-----------------||
G||-----------------||
D||-7---------------||
A||-7---------------||
E||-5---------------||

Guitar Two:

Coming at you-
E||---------||
B||---------||
G||---------||
D||---------||
A||-000-000-||
E||---------||
P.M.### ###

Guitar One: 

At the count of 1,2.
E||--------||
B||----9---||
G||-7--9---||
D||-7--9-7-||
A||-5--7-5-||
E||--------||

1,2,3,4!

VERSE 1:

E||-----------------------------------||
B||------------------9-9-999----------||
G||--------7-77-777--9-9-999----------||
D||-77-777-7-77-777--9-9-999-7-77-777-||
A||-77-777-5-55-555--7-7-777-7-77-777-||
E||-55-555-------------------5-55-555-||

E||-------------------------------------||
B||------------------9-9-999------------||
G||--------7-77-777--9-9-999------------||
D||-77-777-7-77-777--9-9-999-7-777-7777-||
A||-77-777-5-55-555--7-7-777-7-777-7777-||
E||-55-555-------------------5-555-5555-||


My name is jimmy and you better not wear it out
E||-----------------------------------||
B||------------------9-9-999----------||
G||--------7-77-777--9-9-999----------||
D||-77-777-7-77-777--9-9-999-7-77-777-||
A||-77-777-5-55-555--7-7-777-7-77-777-||
E||-55-555-------------------5-55-555-||

Suicide commando that your momma talked out
E||-----------------------------------||
B||------------------9-9-999----------||
G||--------7-77-777--9-9-999----------||
D||-77-777-7-77-777--9-9-999-7-77-777-||
A||-77-777-5-55-555--7-7-777-7-77-777-||
E||-55-555-------------------5-55-555-||

King of the 40 thieves and Iím hear to represent 
E||-----------------------------------||
B||------------------9-9-999----------||
G||--------7-77-777--9-9-999----------||
D||-77-777-7-77-777--9-9-999-7-77-777-||
A||-77-777-5-55-555--7-7-777-7-77-777-||
E||-55-555-------------------5-55-555-||

The needle in the vein of the establishment
E||-----------------------------------||
B||------------------9-9-999----------||
G||--------7-77-777--9-9-999----------||
D||-77-777-7-77-777--9-9-999-7-77-777-||
A||-77-777-5-55-555--7-7-777-7-77-777-||
E||-55-555-------------------5-55-555-||

CHORUS 1:

Iím a patron saint of the denial
E||--------------------------------------||
B||--------------------------------------||
G||-7-7-77-77-77-777---------------------||
D||-7-7-77-77-77-777--7-7-77-77-77-777-7-||
A||-5-5-55-55-55-555--7-7-77-77-77-777-7-||
E||-------------------5-5-55-55-55-555-5-||

With an angel face and a taste for suicidal
E||------------------------------||
B||---------------------9-9-9999-||
G||-7-7-77-77-77-7777---9-9-9999-||
D||-7-7-77-77-77-7777---9-9-9999-||
A||-5-5-55-55-55-5555---7-7-7777-||
E||------------------------------||

POST CHORUS 1:

E||-----------------------------------||
B||------------------9-9-999----------||
G||--------7-77-777--9-9-999----------||
D||-77-777-7-77-777--9-9-999-7-77-777-||
A||-77-777-5-55-555--7-7-777-7-77-777-||
E||-55-555-------------------5-55-555-||

E||----------------------------------------------------||
B||-------------------9-9-999--------------------------||
G||--------7-77-7777--9-9-999-14-14-14-14-14-14-14-14--||
D||-77-777-7-77-7777--9-9-999-14-14-14-14-14-14-14-14--||
A||-77-777-5-55-5555--7-7-777-12-12-12-12-12-12-12-12--||
E||-55-555---------------------------------------------||

VERSE 2: 
[ Tab from: http://www.guitartabs.cc/tabs/g/green_day/st_jimmy_tab_ver_5.html ]
Cigarettes and ramen and a little bag of dope
E||-----------------------------------||
B||------------------9-9-999----------||
G||--------7-77-777--9-9-999----------||
D||-77-777-7-77-777--9-9-999-7-77-777-||
A||-77-777-5-55-555--7-7-777-7-77-777-||
E||-55-555-------------------5-55-555-||

I am a son of a bitch and Edgar Allan Poe
E||-----------------------------------||
B||------------------9-9-999----------||
G||--------7-77-777--9-9-999----------||
D||-77-777-7-77-777--9-9-999-7-77-777-||
A||-77-777-5-55-555--7-7-777-7-77-777-||
E||-55-555-------------------5-55-555-||

Raised in the city under a halo of lights
E||-----------------------------------||
B||------------------9-9-999----------||
G||--------7-77-777--9-9-999----------||
D||-77-777-7-77-777--9-9-999-7-77-777-||
A||-77-777-5-55-555--7-7-777-7-77-777-||
E||-55-555-------------------5-55-555-||

The product of war and fear that weíve been victimized 
E||-----------------------------------||
B||------------------9-9-999----------||
G||--------7-77-777--9-9-999----------||
D||-77-777-7-77-777--9-9-999-7-77-777-||
A||-77-777-5-55-555--7-7-777-7-77-777-||
E||-55-555-------------------5-55-555-||


CHORUS 2:

Iím a patron saint of the denial
E||--------------------------------------||
B||--------------------------------------||
G||-7-7-77-77-77-777---------------------||
D||-7-7-77-77-77-777--7-7-77-77-77-777-7-||
A||-5-5-55-55-55-555--7-7-77-77-77-777-7-||
E||-------------------5-5-55-55-55-555-5-||

With an angel face and a taste for suicidal
E||------------------------------||
B||---------------------9-9-9999-||
G||-7-7-77-77-77-7777---9-9-9999-||
D||-7-7-77-77-77-7777---9-9-9999-||
A||-5-5-55-55-55-5555---7-7-7777-||
E||------------------------------||

POST CHORUS 2:

E||-------------------------------||
B||--------------9-9-9999-99-9999-||
G||-----7---7----9-9-9999-99-9999-||
D||-7~~-7-7-7----9-9-9999-99-9999-||
A||-7~~-5-7-5----7-7-7777-77-7777-||
E||-5~~---5-----------------------||

                   Are you talking to me?
E||-------------------------------||
B||--------------9-9-9999-99-9999-||
G||-----7---7----9-9-9999-99-9999-||
D||-7~~-7-7-7----9-9-9999-99-9999-||
A||-7~~-5-7-5----7-7-7777-77-7777-||
E||-5~~---5-----------------------||

E||-------------------------------||
B||--------------9-9-9999-99-9999-||
G||-----7---7----9-9-9999-99-9999-||
D||-7~~-7-7-7----9-9-9999-99-9999-||
A||-7~~-5-7-5----7-7-7777-77-7777-||
E||-5~~---5-----------------------||

                   I'll give you something to cry about!
E||-------------------------------||
B||--------------9-9-9999-99-9999-||
G||-----7---7----9-9-9999-99-9999-||
D||-7~~-7-7-7----9-9-9999-99-9999-||
A||-7~~-5-7-5----7-7-7777-77-7777-||
E||-5~~---5-----------------------||

INTERLUDE:

E||-----------------------------------------------||
B||--------999-9999----------------------888-8888-||
G||-66-666-999-9999----------------------888-8888-||
D||-77-777-999-9999-10-10-10-10-10-------888-8888-||
A||-77-777-777-7777-10-10-10-10-10-------666-6666-||
E||-55-555-----------8--8--8--8--8----------------||

E||-----------------------------------------------||
B||--------999-9999----------------------888-8888-||
G||-66-666-999-9999----------------------888-8888-||
D||-77-777-999-9999-10-10-10-10-10-------888-8888-||
A||-77-777-777-7777-10-10-10-10-10-------666-6666-||
E||-55-555-----------8--8--8--8--8----------------||

E||-----------------------------------------------||
B||--------999-9999----------------------888-8888-||
G||-66-666-999-9999----------------------888-8888-||
D||-77-777-999-9999-10-10-10-10-10-------888-8888-||
A||-77-777-777-7777-10-10-10-10-10-------666-6666-||
E||-55-555-----------8--8--8--8--8----------------||



                           ST. JIMMY!
E||-----------------------------------------------||
B||--------999-9999----------------------888-8888-||
G||-66-666-999-9999----------------------888-8888-||
D||-77-777-999-9999-10-10-10-10-10-------888-8888-||
A||-77-777-777-7777-10-10-10-10-10-------666-6666-||
E||-55-555-----------8--8--8--8--8----------------||



BRIDGE:

E||------0------0------0-------------0-||
B||------0------0-9999-0-10-10-10-10-0-||
G||------0-7777-0-9999-0--9--9--9--9-0-||
D||-7777---7777---9999----7--7--7--7---||
A||-7777---5555---7777----0--0--0--0---||
E||-5555-------------------------------||

E||-------------0---------------------------------------------||
B||-10-10-10-10-0---------999-999-999-999-9~~-----------------||
G||--9--9--9--9-0-7777----999-999-999-999-9~~-----------------||
D||--7--7--7--7---7777----999-999-999-999-9~~-----------------||
A||--0--0--0--0---5555----777-777-777-777-7~~-----------------||
E||--------------------0-----------------------Pick-Scrape----||
SOLO:

There are two guitar tracks.

Guitar One: Solo lick 

E||-------------------------12\\\\\\0-||
B||-----------8-7--10-10-10-----------||
G||-99-9-77-7-------------------------||
D||-----------------------------------||
A||-----------------------------------||
E||-----------------------------------||

Guitar Two: 

E||------------------------------------||
B||------------------------------------||
G||---------7777-777------77-----------||
D||-77-7777-7777-777-5-55-77-7-777-777-||
A||-77-7777-5555-555-5-55-55-7-777-777-||
E||-55-5555----------3-33----5-555-555-||

My name is St. jimmy Iím a son of a gun, Iím the one thatís from the way outside
E||------------------------------------||
B||------------------------------------||
G||---------7777-777------77-----------||
D||-77-7777-7777-777-5-55-77-7-777-777-||
A||-77-7777-5555-555-5-55-55-7-777-777-||
E||-55-5555----------3-33----5-555-555-||

Iím a teenage assassin executing some fun in the cult of the life of crime
E||------------------------------------||
B||------------------------------------||
G||---------7777-777------77-----------||
D||-77-7777-7777-777-5-55-77-7-777-777-||
A||-77-7777-5555-555-5-55-55-7-777-777-||
E||-55-5555----------3-33----5-555-555-||

I really hate to say it but I told you so, so shut your mouth before I shoot you down, Olí Boy!
E||------------------------------------||
B||------------------------------------||
G||---------7777-777------77-----------||
D||-77-7777-7777-777-5-55-77-7-777-777-||
A||-77-7777-5555-555-5-55-55-7-777-777-||
E||-55-5555----------3-33----5-555-555-||

Welcome to club and give me some blood Iím the resident leader of lost and found
E||------------------------------------||
B||------------------------------------||
G||---------7777-777------77-----------||
D||-77-7777-7777-777-5-55-77-7-777-777-||
A||-77-7777-5555-555-5-55-55-7-777-777-||
E||-55-5555----------3-33----5-555-555-||

OUTRO:

Itís comedy, and tragedy 
E||------------------------||
B||--------------9-9-------||
G||-----7~~~~-7--9-9-------||
D||-7-7-7~~~~-7--9-9-7~~~~-||
A||-7-7-5~~~~-5--7-7-7~~~~-||
E||-5-5--------------5~~~~-||

Itís St. Jimmy, and thatís my name_________________
E||---------------------------------||
B||--------------999999-------------||
G||-----7~~~~-7--999999-------------||
D||-7-7-7~~~~-7--999999-7~~~~~~~~~~-||
A||-7-7-5~~~~-5--777777-7~~~~~~~~~~-||
E||-5-5-----------------5~~~~~~~~~~-||

And donít wear it out!
E||-------------------||
B||-------------------||
G||-------------------||
D||-7777--------------||
A||-7777--------------||
E||-5555--------------||

Thanks for reading!

--------------------
Lyrics:
--------------------

All Up There ^
Comments