Green Day - St Jimmy Chords & Tabs

 

St Jimmy Chords & Tabs

Green Day Chords & Tabs

Version: 4 Type: Bass Tab 0 ratings
1 star 2 stars 3 stars 4 stars 5 stars
comments

St Jimmy Bass Tab

Riff 
(This is not played separately I just tabbed it separately cos its easier 
to read this way)
G|------------------------------------------------------------------------------|
D|------------------------------------------------------------------------------|
A|-0-0-0-0-0-0-0-0-0-0-0-0-0-0-0-0-0-0------------------------------------------|
E|------------------------------------------------------------------------------|
PM ***********************************

Intro
G|------------------------------------------------------------------------------|
D|------------------------------------------------------------------------------|
A|---(riff)--5----(riff)--5----(riff)--5-----(riff)--5-----(riff)--5-----(riff)-|
E|-5------------5------------5------------5-------------5-------------5---------|

             ('1,2,3,4')
G|------------------------------------------------------------------------------|
D|------------------------------------------------------------------------------|
A|-5---7---5--------------------------------------------------------------------|
E|------------------------------------------------------------------------------|

Verse 
G|------------------------------------|-----------------------------------------|
D|------------------------------------|-----------------------------------------|
A|----------5-5-5-5--7-7-7-7----------|----------5-5-5-5--7-7-7-7---------------|
E|-5-5-5-5--------------------5-5-5-5-|-5-5-5-5--------------------5-5-5-5------|
[ Tab from: http://www.guitartabs.cc/tabs/g/green_day/st_jimmy_btab_ver_4.html ]
Chorus
G|------------------------------------------------------------------------------|
D|------------------------------------------------------------------------------|
A|-5-5-5-5-5-5-5-5-------------------5-5-5-5-5-5-5-5-------------------5-xx-5-7-|
E|------------------5-5-5-5-5-5-5-5-------------------5-5-5-5-5-5-5-5-----------|

Bridge
G|------------------------------|  |----------------------------------------|
D|------------------------------|  |----------------------------------------|
A|----5-----5--7-7-7-7-7-7-7-7--|x3|----------7-7-7-7---------------6-6-6-6-| x4
E|-5-----5----------------------|  |-5-5-5-5------------8--8--8--8----------|

G|-------------------------------------|---------------------------------------|
D|----------------------------7-7-7-7--|-7-7-7-7-------------------------------|
A|----------5-5-5-5--7-7-7-7-----------|----------5-5-5-5--7-7-7-7-7-7-7-7-7-7-|
E|-5-5-5-5-----------------------------|---------------------------------------|

(Pause while guitar plays Solo)

Outro
G|-------------------------|  |-------------------|----------------------------|
D|-------------------------|  |-------------------|----------------------------|
A|---------5-5-5-5---------|x4|-------5~--7-7-----|--------5~--7-7-------------|
E|-5-5-5-5---------3-3---5-|  |-5-5~-----------5~-|-5~-5~-----------5~--5-5-5--|

End ('and don't wear it out')
G|--------------------------|
D|--------------------------|
A|--------------------------|
E|--5----5-----5----5-------|

Order

Intro
Verse x3
Chorus
Verse x3
Chorus
Bridge
Solo
Outro
End



Comments