Green Day - Shes A Rebel Chords & Tabs

 

Shes A Rebel Chords & Tabs

Green Day Chords & Tabs

Version: 6 Type: Bass Tab 0 ratings
1 star 2 stars 3 stars 4 stars 5 stars
comments

Shes A Rebel Bass Tab

--------She's a rebel bass tab----------

this version has more riffs in it than the original version and its a lot more fun to play imo

if u can't get the timing down for some reason watch my video of me playing it at 
http://www.youtube.com/watch?v=9YSgDo0N0AY

any questions send me a message over youtube


Green Day - She's a Rebel

Intro
G|--------------------------------------------|
D|--------------------------------------------|
A|---------10-10--5-55-3-2-0-2----------------|
E|-33--33-------------------------------------|
[ Tab from: http://www.guitartabs.cc/tabs/g/green_day/shes_a_rebel_btab_ver_6.html ]
verse  "from chicago...."
G|--------------------------------------------------|
D|--------------------------------------------------|
A|--------3-33------3-33--10-1010-3-33-5-55--3202---|
E|--3--33------3-33---------------------------------|

chorus  "she's sings..."
G|--------------------------------------------------|
D|--------------------------------------------------|
A|--7-7777777-------------------10-1010101010-------|
E|------------7-777777-8-888888---------------------|

chorus continued
G|----------------------------------------------------|
D|----------------------------------------------------|
A|------------------7-777-8-8888-7-5555---------------|
E|-8-8888888-7-7777---------------------0-7-55-7-8----|

play the verse during the lil guitar solo part
again if you cant get the timing watch my cover on youtube 
http://www.youtube.com/watch?v=9YSgDo0N0AY
Comments