Green Day - She's A Rebel Chords & Tabs

 

She's A Rebel Chords & Tabs

Green Day Chords & Tabs

Version: 3 Type: Bass Tab 0 ratings
1 star 2 stars 3 stars 4 stars 5 stars
comments

She's A Rebel Bass Tab

   
-----------------------------------------------------------------------------
			     She's A Rebel - Green Day
-----------------------------------------------------------------------------

Tabbed By : fenderbass1
Tuning: Standard

*You have to have seen VH1/2 storytellers to see how Mike plays the verse speed*

Intro:
G|--------------------------------------------------|
D|--------------------------------------------------|
A|-------------------------------------5-55-3-2-----|
E|-33----------33----------33-------------------3-2-|

G|--------------------------------------------------|
D|--------------------------------------------------|
A|----------------------------------12\5-55-3-2-----|
E|-33----------33----------33-------------------3-2-|

Verse: Play twice
G|-------------------------------------------|
D|--5----------5----------5------------------|
A|----2-3--------2-3--------2-3-5-55-3-2-----|
E|-3-----3-2--3-----3-2--3---------------3-2-|

Chorus:
G|--------------------------------|
D|--------------------------------|
A|-7-7--7-2-2-2-2--3-3--3---------|
E|------------------------3-3-3-3-|

G|---------------------------------------------------|
D|---------------------------------------------------|
A|-7-7--7-2-2-2-10-10--10-12-12-12-10-10-------------|
E|---------------------------------------8-8-7-5-7-8-|
[ Tab from: http://www.guitartabs.cc/tabs/g/green_day/shes_a_rebel_btab_ver_3.html ]
Verse: Play twice
G|-------------------------------------------|
D|--5----------5----------5------------------|
A|----2-3--------2-3--------2-3-5-55-3-2-----|
E|-3-----3-2--3-----3-2--3---------------3-2-|

Chorus:
G|--------------------------------|
D|--------------------------------|
A|-7-7--7-2-2-2-2--3-3--3---------|
E|------------------------3-3-3-3-|

G|---------------------------------------------------|
D|---------------------------------------------------|
A|-7-7--7-2-2-2-10-10--10-12-12-12-10-10-------------|
E|---------------------------------------8-8-7-5-7-8-|

Pre outro:
G|--------------------------------------------------|
D|--------------------------------------------------|
A|-------------------------------------5-55-3-2-----|
E|-33----------33----------33-------------------3-2-|

G|--------------------------------------------------|
D|--------------------------------------------------|
A|----------------------------------12\5-55-3-2-----|
E|-33----------33----------33-------------------3-2-|

Verse: Play 4 times            play this at the end
G|-------------------------------------------|----|
D|--5----------5----------5------------------|----|
A|----2-3--------2-3--------2-3-5-55-3-2-----|----|
E|-3-----3-2--3-----3-2--3---------------3-2-|-33-|


| /  slide up
| \  slide down
| h  hammer-on
| p  pull-off
| ~  vibrato
| +  harmonic
| x  Mute note
=============================================================================
Comments