Green Day - She's A Rebel Chords & Tabs

 

She's A Rebel Chords & Tabs

Green Day Chords & Tabs

Version: 2 Type: Bass Tab 0 ratings
1 star 2 stars 3 stars 4 stars 5 stars
comments

She's A Rebel Bass Tab

   
  ------------------------------------------------------------------
		       GREEN DAY - SHE'S A REBEL (AMERICAN IDIOT) 
                     ------------------------------------------------------------------

[ Tabber: LUIZ MANZANO (BRASIL) ]
[ e-mail: lukdeluca@yahoo.com.br]


"She's a rebel..."
G|------------------------------|
D|-5-5-5---------5-5-5----------|
A|-------55-32-3------55-32-3---|
E|3-3-3-------5-3-3-3------5----|                    
 
"From Chicago to Toronto..."
repeat 5x
G|-----------------------|
D|--------55-------------|
A|--33--33--33-55-32-3---|
E|33--33------------5----|


"She sings the revolution..."
G|-----------------------------------------------------------------|
D|--------------------55555555--------------------10---------------|
A|77777-22222222-33333--------33333-22-2/77-77-888--55-------------|
E|----------------------------------------------------77-55-78\0---|
[ Tab from: http://www.guitartabs.cc/tabs/g/green_day/shes_a_rebel_btab_ver_2.html ]
Solo
repeat_2x
G|-----------------------|
D|--------55-------------|
A|--33--33--33-55-32-3---|
E|33--33------------5----|

"She sings the revolution..."
G|-----------------------------------------------------------------|
D|--------------------55555555--------------------10---------------|
A|77777-22222222-33333--------33333-22-2/77-77-888--55-------------|
E|----------------------------------------------------77-55-78\0---|

"She's a rebel..."
G|------------------------------|
D|-5-5-5---------5-5-5----------|
A|-------55-32-3------55-32-3---|
E|3-3-3-------5-3-3-3------5----|

"She's a rebel...(final)"
repeat_4x
G|-----------------------|
D|--------55-------------|
A|--33--33--33-55-32-3---|
E|33--33------------5----|



| /  slide up
| \  slide down
| h  hammer-on
| p  pull-off
| ~  vibrato
| +  harmonic
| x  Mute note
===============================================================================
Comments