Green Day - She Chords & Tabs

 

She Chords & Tabs

Green Day Chords & Tabs

Version: 5 Type: Tab 0 ratings
1 star 2 stars 3 stars 4 stars 5 stars
comments

She Tab

   
Tabbed by:Sam Champness
Email:
Song: She
Tuning: Half step down

Intro
e|-------------|
B|-------------|
G|-------------|
D|5555555555---|
A|5555555555---|
E|3333333333---|
PM__________

Chorus
e|---------------------|-----------------------------------------------|
B|---------------------|-----------------------------------------------|
G|7777--5555-----------|-5555--------5555--------5555--------7777777---|
D|7777--5555--555555---|-5555--5555--5555--5555--5555--5555--7777777---|
A|5555--3333--555555---|-3333--5555--3333--5555--3333--5555--5555555---|
E|------------333333-x2|-------3333--------3333--------3333------------|
[ Tab from: http://www.guitartabs.cc/tabs/g/green_day/she_tab_ver_5.html ]
Verse
e|--------------------------------------------------|
B|--------------------------------------------------|
G|-----------77777777--55555555-------5-------------|
D|555555555--77777777--55555555--5-5--5--55555555---|
A|555555555--55555555--33333333--5-5--3--55555555---|
E|333333333----------------------3-3-----33333333---|X2
Pm******************************        ********  

Bridge
e|----------------------------------------------------------|
B|----------------------------------------------------------|
G|-------------77777777777--55555555555------5--------------|
D|55555555555--77777777777--55555555555--55--5--555555555---|
A|55555555555--55555555555--33333333333--55--3--555555555---|
E|33333333333----------------------------33-----333333333---|x2

ORDER
DRUMS AND BASS
CHORUS
VERSE
CHORUS
BRIDGE
CHORUS
END
| /  slide up
| \  slide down
| h  hammer-on
| p  pull-off
| ~  vibrato
| +  harmonic
| x  Mute note
| =  Palm mute
============================================================================
Comments