Green Day - She Chords & Tabs

 

She Chords & Tabs

Green Day Chords & Tabs

Version: 3 Type: Tab 0 ratings
1 star 2 stars 3 stars 4 stars 5 stars
comments

She Tab

-------------------------------------------------------------------------------
			     She - Green Day
-------------------------------------------------------------------------------
Tabbed by: Rancdkidz_182
Email: blink182_16ire @ayhoo.com
AIM : rancdkidz

Tuning: Standard Tuning
 
Intro (after 24 seconds come in with this)
e|---------------------------------------------------------------------------|
B|---------------------------------------------------------------------------|
G|--6------------------------------------------------------------------------|
D|--6--x 14------------------------------------------------------------------|
A|--4------------------------------------------------------------------------|
E|---------------------------------------------------------------------------|

[ Tab from: http://www.guitartabs.cc/tabs/g/green_day/she_tab_ver_3.html ]
Chorous - Figure out the strumming yourself, its super easy.
e|---------------------------------------------------------------------------|
B|---------------------------------------------------------------------------|
G|--4---------4---------4---------4---------4---------6----------------------|
D|--4----4----4----4----4----4----4----4----4----4----6----------------------|
A|--2----4----2----4----2----4----2----4----2----4----4----------------------|
E|-------2---------2---------2---------2---------2---------------------------|
                       |--here strumming changes--|
                       |--scream at me...
Verse
e|---------------------------------------------------------------------------|
B|---------------------------------------------------------------------------|
G|--------------6666666666--4444444444----4----------------------------------|
D|--4444444444--6666666666--4444444444--444444444----------------------------|
A|--4444444444--4444444444--2222222222--442444444----------------------------|
E|--2222222222--------------------------22-222222----------------------------|
     *********   ****** **   ****** **
        pm          pm          pm
e|---------------------------------------------------------------------------|
B|---------------------------------------------------------------------------|
G|--------------6666666666--4444444444----4----------------------------------|
D|--4444444444--6666666666--4444444444--444444444----------------------------|
A|--4444444444--4444444444--2222222222--442444444----------------------------|
E|--2222222222--------------------------22-222222----------------------------|
     ****** **   ****** **   
        pm          pm

Bridge
e|---------------------------------------------------------------------------|
B|---------------------------------------------------------------------------|
G|--------------6666666666--4444444444----4----------------------------------|
D|--4444444444--6666666666--4444444444--444444444----------------------------|
A|--4444444444--4444444444--2222222222--442444444----------------------------|
E|--2222222222--------------------------22-222222----------------------------|
     

     
e|---------------------------------------------------------------------------|
B|---------------------------------------------------------------------------|
G|--------------6666666666--4444444444----4----------------------------------|
D|--4444444444--6666666666--4444444444--444444444----------------------------|
A|--4444444444--4444444444--2222222222--442444444----------------------------|
E|--2222222222--------------------------22-222222----------------------------|
      
 
ORDER OF PLAY
 
 Intro
 Chorous
 Verse
 Chorous
 Bridge
 Chorous
Comments