Green Day - She Chords & Tabs

 

She Chords & Tabs

Green Day Chords & Tabs

Version: 1 Type: Tab 3 ratings
1 star 2 stars 3 stars 4 stars 5 stars
comments

She Tab

   
Tabbed By: GuitarKid_123
Music By: Green Day
Song: She
Album: Dookie
Tuning: Half Step Down

I left out the strumming so your gonna have to 
figure that out on your own, and for the palm mutes 
and junk on the second verse your better off just 
listening to the song to get the rythem and all down, 
that way the second verse is cake.


Pre chorus:

Eb---|
Bb---|
Gb---|
Db-5-|
Ab-5-|
Eb-3-|

^^Keep Strumming This Note 
While Palm Muting And Slowly Releasing.
[ Tab from: http://www.guitartabs.cc/tabs/g/green_day/she_tab.html ]
Chorus:
 
 (-------2x-------)   
Eb------------------|-----------------------|
Bb------------------|-----------------------|
Gb-7----4/5-5-------|-5---5---5------7------|
Db-7----4/5-5--5----|-5-5-5-5-5-5----7------|
Ab-5----2/3-3--5----|-3-5-3-5-3-5----5------|
Eb-------------3----|---3---3---3-----------|
"Are You Locked..." "Scream At Me Until..."

Verse 2:

 (--------2x--------)
Eb--------------------|
Bb--------------------|
Gb-----7--5-----5-----|
Db--5--7--5--5--5--5--|
Ab--5--5--3--5--3--5--|
Eb--3--------3-----3--|

End:

Eb---|
Bb---|
Gb---|
Db-5-|
Ab-5-|
Eb-3-|


Order:
Verse 1(Just Bass And Drums)
Pre Chorus
Chorus
Verse 2
Chorus
Verse 2(Strummed)
Chorus
End
Comments