Green Day - She Chords & Tabs

 

She Chords & Tabs

Green Day Chords & Tabs

Version: 6 Type: Bass Tab 0 ratings
1 star 2 stars 3 stars 4 stars 5 stars
comments

She Bass Tab

From start to finish

G||------------------------|-----------------------|------------------------|
D||--4----4----4--4--4--4--|----4--4----4--4--4----|--4----4----4--4--4--4--|
A||------------------------|-----------------------|------------------------|
E||------------------------|-----------------------|------------------------|


                                                                         
-----------------------|------------------------|-----------------------|
----4--4----4--4--4----|--4----4----4--4--4--4--|----4--4----4--4--4----|
-----------------------|------------------------|-----------------------|
-----------------------|------------------------|-----------------------|


                                                                         
-----------------------|------------------------|-----------------------|
-----------------------|------------------------|-----------------------|
--4----4----4--4----4--|----4--4----4--4--4-----|--2----2----2--2----2--|
-----------------------|---------------------4--|-----------------------|


                                                                          
------------------------|------------------------|-----------------------|
------------------------|--4----4----4--4--4--4--|----4--4----4--4--4----|
----2--2----2--2--2--4--|------------------------|-----------------------|
------------------------|------------------------|-----------------------|


                                                                         
------------------------|-----------------------|-----------------------|
--4----4----4--4--4--4--|----4--4----4--4--4----|-----------------------|
------------------------|-----------------------|--4----4----4--4----4--|
------------------------|-----------------------|-----------------------|


                                                                         
------------------------|-----------------------|-----------------------|
------------------------|-----------------------|--2-------2------------|
----4--4----4--4--4-----|--2----2----2--2----2--|-------2-------2--2----|
---------------------4--|-----------------------|-----------------------|


                                                                               
--------------------------|--------------------------|------------------------|
--------------------------|--------------------------|------------------------|
--------------------------|--------------------------|--4----4----4--4--4--4--|
--2--2--2--2--2--2--2--2--|--2--2--2--2--2--2--2--2--|------------------------|


                                                                        
-----------------------|----------------------|------------------------|
-----------------------|----------------------|------------------------|
----4----4----4--4--1--|------2----2--2-------|------------------------|
-----------------------|-------------------2--|----2--2----2--2--2--2--|


                                                                         
------------------------|-----------------------|-----------------------|
------------------------|-----------------------|-----------------------|
--4----4----4--4--4--4--|----4----4----4--4--1--|--2----2----2--2-------|
------------------------|-----------------------|--------------------2--|


                                                                             
------------------------|-------------------------|-------------------------|
------------------------|-------------------------|-------------------------|
------------------------|--2----2--2--2--2--2--2--|-------------------------|
----2--2----2--2--2--2--|-------------------------|--2----2--2--2--2--2--2--|


                                                                              
-------------------------|-------------------------|-------------------------|
-------------------------|-------------------------|-------------------------|
--2----2--2--2--2--2--2--|-------------------------|--2----2--2--2--2--2--2--|
-------------------------|--2----2--2--2--2--2--2--|-------------------------|


                                                                             
-------------------------|-------------------------|------------------------|
-------------------------|-------------------------|------------------------|
-------------------------|--4----4--4--4--4--4--4--|----4--4--4--4--4--4----|
--2----2--2--2--2--2--2--|-------------------------|------------------------|


                                                                         
------------------------|-----------------------|-----------------------|
------------------------|-----------------------|-----------------------|
------------------------|-----------------------|--4----4----4--4----4--|
--2----2----2--2--2--2--|----2--2----2--2--2----|-----------------------|


                                                                          
------------------------|-----------------------|------------------------|
------------------------|-----------------------|------------------------|
----4--4----4--4--4-----|--2----2----2--2----2--|----2--2----2--2--2--4--|
---------------------4--|-----------------------|------------------------|


                                                                          
------------------------|-----------------------|------------------------|
------------------------|-----------------------|------------------------|
---------------2--2-----|-----------------------|------------------------|
--2----2----2--------2--|----2--2----2--2--2----|--2----2----2--2--2--2--|


                                                                         
-----------------------|-----------------------|------------------------|
-----------------------|-----------------------|------------------------|
-----------------------|--4----4----4--4----4--|----4--4----4--4--4-----|
----2--2----2--2--2----|-----------------------|---------------------4--|

[ Tab from: http://www.guitartabs.cc/tabs/g/green_day/she_btab_ver_6.html ]
                                                                         
-----------------------|-----------------------|------------------------|
-----------------------|--2-------2------------|------------------------|
--2----2----2--2----2--|-------2-------2--2----|---------------2--2-----|
-----------------------|-----------------------|--2----2----2--------2--|


                                                                         
-----------------------|------------------------|-----------------------|
-----------------------|------------------------|-----------------------|
-----------------------|--4----4----4--4--4--4--|----4----4----4--4--1--|
----2--2----2--2--2----|------------------------|-----------------------|


                                                                          
-----------------------|------------------------|------------------------|
-----------------------|------------------------|------------------------|
--2----2----2--2-------|------------------------|--4----4----4--4--4--4--|
--------------------2--|----2--2----2--2--2--2--|------------------------|


                                                                         
-----------------------|-----------------------|------------------------|
-----------------------|-----------------------|------------------------|
----4----4----4--4--1--|--2----2----2--2-------|------------------------|
-----------------------|--------------------2--|----2--2----2--2--2--2--|


                                                                              
-------------------------|-------------------------|-------------------------|
-------------------------|-------------------------|-------------------------|
--2----2--2--2--2--2--2--|-------------------------|--2----2--2--2--2--2--2--|
-------------------------|--2----2--2--2--2--2--2--|-------------------------|


                                                                              
-------------------------|-------------------------|-------------------------|
-------------------------|-------------------------|-------------------------|
-------------------------|--2----2--2--2--2--2--2--|-------------------------|
--2----2--2--2--2--2--2--|-------------------------|--2----2--2--2--2--2--2--|


                                                                            
-------------------------|------------------------|------------------------|
-------------------------|------------------------|------------------------|
--4----4--4--4--4--4--4--|----4--4--4--4--4--4----|------------------------|
-------------------------|------------------------|--2----2----2--2--2--2--|


                                                                             
-------------------------|------------------------|-------------------------|
-------------------------|------------------------|-------------------------|
-------------------------|--4----4----4--4--4--4--|----4--4--4--4--4--4--4--|
----2--2--2--2--2--2--2--|------------------------|-------------------------|


                                                                          
------------------------|-------------------------|----------------------|
------------------------|-------------------------|----------------------|
--2----2----2--2--2--2--|----2--2--2--2--2--2--2--|--------------2-------|
------------------------|-------------------------|--2----2-----------2--|


                                                                             
-------------------------|------------------------|-------------------------|
-------------------------|------------------------|-------------------------|
-------------------------|------------------------|-------------------------|
----2--2--2--2--2--2--2--|--2----2----2--2--2--2--|----2--2--2--2--2--2--2--|


                                                                           
------------------------|-------------------------|-----------------------|
------------------------|-------------------------|-----------------------|
--4----4----4--4--4--4--|----4--4--4--4--4--4--4--|--2----2----2--2----2--|
------------------------|-------------------------|-----------------------|


                                                                         
-----------------------|----------------------|-------------------------|
--2-------2------------|----------------------|-------------------------|
-------2-------2--2----|--------------2-------|-------------------------|
-----------------------|--2----2-----------2--|----2--2--2--2--2--2--2--|


                                                                         
------------------------|-----------------------|-----------------------|
------------------------|-----------------------|-----------------------|
--4----4----4--4--4--4--|----4----4----4--4--1--|--2----2----2--2-------|
------------------------|-----------------------|--------------------2--|


                                                                          
------------------------|------------------------|-----------------------|
------------------------|------------------------|-----------------------|
------------------------|--4----4----4--4--4--4--|----4----4----4--4--1--|
----2--2----2--2--2--2--|------------------------|-----------------------|


                                                                           
-----------------------|------------------------|-------------------------|
-----------------------|------------------------|-------------------------|
--2----2----2--2-------|------------------------|--2----2--2--2--2--2--2--|
--------------------2--|----2--2----2--2--2--2--|-------------------------|


                                                                              
-------------------------|-------------------------|-------------------------|
-------------------------|-------------------------|-------------------------|
-------------------------|--2----2--2--2--2--2--2--|-------------------------|
--2----2--2--2--2--2--2--|-------------------------|--2----2--2--2--2--2--2--|


                                                                              
-------------------------|-------------------------|-------------------------|
-------------------------|-------------------------|-------------------------|
--2----2--2--2--2--2--2--|-------------------------|--4----4--4--4--4--4--4--|
-------------------------|--2----2--2--2--2--2--2--|-------------------------|


                                              
------------------------|-------------------||
------------------------|-------------------||
----4--4--4--4--4--4----|-------------------||
------------------------|--2----------------||
Comments