Green Day - She Chords & Tabs

 

She Chords & Tabs

Green Day Chords & Tabs

Version: 5 Type: Bass Tab 0 ratings
1 star 2 stars 3 stars 4 stars 5 stars
comments

She Bass Tab

   
Tabbed by: fenderbass1
Standard tuning (E,A,D,G)

Intro:
G------------------------------------------------------
D------------------------------------------------------
A----999999999999999999999999911-44444444446-2222222222
E------------------------------------------------------

G--------------------------------------------------------------
D-----------------------------------------4---4---4444444444444
A----99999999999999911-44444444446-222222---2---2--------------
E--------------------------------------------------------------

Chorus:
G---------------------------------------------
D---------------------------------------------
A----444444444-2222--------444444444-2222-----
E--------------------2222-----------------2222

G-------------------------------------------------
D-------------------------------------------------
A-------22------------22-44----22-------4444444444
E----22----22-1-22-22-------22----22-12-----------

Verse
G--------------------------------------------
D--------------------------------------------
A----99999999999999911-44444444446-2222222222
E--------------------------------------------
[ Tab from: http://www.guitartabs.cc/tabs/g/green_day/she_btab_ver_5.html ]
G------------------------------------------------
D-----------------------------------------4---4--
A----99999999999999911-44444444446-222222---2---2
E------------------------------------------------

Chorus:
G--------------------------------------------
D--------------------------------------------
A----444444444-2222------444444444-2222-----
E-------------------2222----------------2222

G-------------------------------------------------
D-------------------------------------------------
A-------22------------22-44----22-------4444444444
E----22----22-1-22-22-------22----22-12-----------

Bridge:
G----------------------------------------------
D---------------------6-4-3------------------44
A----9999999999-44444-------2222222222222222---
E----------------------------------------------

G----------------------------------------------
D-----------------------3643----------44---4-44
A----999999999-44444-44------4-222222----2-----
E----------------------------------------------

Ending:
G-------------------------------------------
D-------------------------------------------
A----444444444-2222------444444444-2222-----
E-------------------2222----------------2222

G----------------------------------------------------
D----------------------------------------------------
A-------22------------22-44----22-------4444444444---
E----22----22-1-22-22-------22----22-12------------2-
Comments