Green Day - She Chords & Tabs

 

She Chords & Tabs

Green Day Chords & Tabs

Version: 3 Type: Bass Tab 0 ratings
1 star 2 stars 3 stars 4 stars 5 stars
comments

She Bass Tab

THIS TAB IS 100 % RIGHT. Although Mike always plays his bass tuned half a
step down, you can play it in Standard this way.

Intro
G-------------------------------------------------------
D--4-4-4-4-4-4-4/6---------------------------4-4-4-4-4--
A------------------4-4-4-4-4-4---2-2-2-2-2-2------------
E------------------------------4------------------------

G----------------------------------------------------------
D-4-4-4-4-4-4-4/6---------------------3h4--3h4--3h4--------
A-----------------4-4-4-4-4---2-2-2-2-----2----2-----------
E---------------------------4------------------------3-3-3-

Chorus				       	 		     X3                                 X3
G-----------------------------------------|----------------
D--------------------------2h4------------|----------------
A--4-4-4-4-4-4-4-2-2-2-1-2----------------|--2-2-2-2-------
E------------------------------2-2-2-2-2--|----------2-2-2-
[ Tab from: http://www.guitartabs.cc/tabs/g/green_day/she_btab_ver_3.html ]
G----------------------------------------------------------
D----------------------------------------------------------
A--2h4-4-4-4-4-4-------------------------------------------
E----------------------------------------------------------

2nd Verse
G----------------------------------------------------------
D----------------------------------------------------------
A----------------4-4-4-4-4-4-4-2-2-2-2-2-2-2-----2-2-------
E--2-2-2-2-2-2-2-----------------------------2-2-----2-2-2-

G----------------------------------------------------------
D--------------------------------------3h4-3h4-3h4---------
A----------------4-4-4-4-4-4-4-2-2-2-2----2---2-------2-2--
E--2-2-2-2-2-2-2-----------------------------------2-2----2

Bridge (X2)
G----------------------------------------------------------
D--------------------------3h4-6-4p3--------3h4--3h4--3h4--
A----------------4-4-4-4-6-----------6-2-2-2----2----2-----
E--2-2-2-2-2-2-2-------------------------------------------

G----------------------------------------------------------
D----------------------------------------------------------
A------2---------------------------------------------------
E--2-2---2-2-2-2-------------------------------------------

Mail me any suggestions to ftolone@hotmail.com
Comments