Green Day - See The Light Chords & Tabs

 

See The Light Chords & Tabs

Green Day Chords & Tabs

Version: 2 Type: Bass Tab 0 ratings
1 star 2 stars 3 stars 4 stars 5 stars
comments

See The Light Bass Tab

   
-------------------------------------------------------------------------------
			      See The Light-Green Day
-------------------------------------------------------------------------------

Tabbed By:Stjimmy34 
Tuning:Standard

Verse x4
G|---------------------------------------------------------------------------|
D|------666666666666---------------------------------------------------------|
A|-4-------------------------------------------------------------------------|
E|----4----------------------------------------------------------------------|

Chorus
G|---------------------------------------------------------------------------|
D|-----------------6-66-66666------------------------------------------------|
A|-4-4-444-----444------------44-------4-4-444-----444------------44---------|
E|---------222-------------------4-44----------222-----4-44-44444----4-44----|

G|---------------------------------------------------------------------------|
D|-----------------6-66-66666------------------------------------66----66----|
A|-4-4-444-----444------------44-------4-4-444-----444-666666666----66-------|
E|---------222-------------------4-44----------222---------------------------|

Verse x6
[ Tab from: http://www.guitartabs.cc/tabs/g/green_day/see_the_light_btab_ver_2.html ]
Chorus 2
G|---------------------------------------------------------------------------|
D|-----------------6-66-666-6------------------------------------------------|
A|-4-4-444-----444------------44-------4-4-444-----444------------44---------|
E|---------222-------------------4-44----------222-----4-44-44444----4-44----|

G|---------------------------------------------------------------------------|
D|-----------------6-66-66666------------------------------------------------|
A|-4-4-444-----444------------44-------4-4-444-----444-6---------------------|
E|---------222-------------------4-44----------222---------------------------|

Guitar solo
G|-------------------------------------------------666-----------------------|
D|---------------------------------------------444-333-----------------------|
A|-4-4-444-----444------------44-------4-4-444--------------------44---------|
E|---------222-----4-44-44444----4-44------------------4-44-44444----4-44----|

G|-------------------------------------------------666-----------------------|
D|---------------------------------------------444-333-----------66----66----|
A|-4-4-444-----444------------44-------4-4-444---------666666666----66-------|
E|---------222-----4-44-44444----4-44----------------------------------------|

Verse x10

Chorus

Outro
G|----------------------------------------------------------------------------|
D|-----------------------------6666666666666666-------------------------------|
A|-4----------------------4----------------------4----------------------------|
E|---4--4444444444444444----4----------------------4-4444444444444444---------|



| /  slide up
| \  slide down
| h  hammer-on
| p  pull-off
| ~  vibrato
| +  harmonic
| x  Mute note
===============================================================================
Comments