Green Day - Scattered Chords & Tabs

 

Scattered Chords & Tabs

Green Day Chords & Tabs

Version: 2 Type: Bass Tab 0 ratings
1 star 2 stars 3 stars 4 stars 5 stars
comments

Scattered Bass Tab

Song: Scattered
Artist: Green Day
Album: Nimrod

Intro		    X3
G---------------------|-----------------------
D---------------------|-----------------------
A--2-2-0--------------|--2-2-2-2-0-2-2-2-2-2--
E--------4h5-0-0-0-0--|-----------------------

Verse
G-------------------------------------------------
D-------------------------------------------------
A-------------------------------------------------
E--0-0-0-0-0-0-4-4-4-4-4-4-5-5-5-5-5-7-7-7-7-7-7--
[ Tab from: http://www.guitartabs.cc/tabs/g/green_day/scattered_btab_ver_2.html ]
Chorus
G-----------------------------------------------------------------------------
D------------------------------------------------------------------2h4-2------
A--4-4-4-4-7-7-7-7---------------------------------------------2h4-------4-2--
E------------------7-7-7-7-5-5-5-5-0-2-2-2-2-5-5-5-5-0-0-0-0-0----------------
							
G-----------------------------------------------------------------------
D-----------------------------------------------------------------------
A--4-4-4-4-7-7-7-7------------------------------------------------------
E------------------7-7-7-7-5-5-5-5-0-2-2-2-2-5-5-5-5-0-0-0-0-0-0-0-0-0--
						     (cut short 2nd time)
Bridge		    X5
G---------------------|-----------------------
D---------------------|-----------------------
A--2-2-0--------------|--2-2-2-2-0-2-2-2-2-2--
E--------4h5-0-0-0-0--|-----------------------

Solo
G--------------------------------------------------------------------------------
D------------2h-2h-2h-----2-2---------2h-2h-2h-----2h-2h-2h----------------------
A--------------------------------------------------------------------------------
E--0-0-0-0-0----------0-0-----0-0-0-0----------0-0----------0-0-0-0-0-0-0-0-0-0--

G-------------------
D-------------------
A--2-2-2-2-2-2-2-2--
E-------------------

Outro
G-----------------------------------------------------------------------------
D------------------------------------------------------------------2h4-2------
A--4-4-4-4-7-7-7-7---------------------------------------------2h4-------4-2--
E------------------7-7-7-7-5-5-5-5-0-2-2-2-2-5-5-5-5-0-0-0-0-0----------------
							
G-----------------------------------------------------------------------------------------------
D----------------------------------------------------------------2h4-2--------------------------
A--4-4-4-4-7-7-7-7-------------------------------------------2h4-------4-2----------------------
E------------------7-7-7-7-5-5-5-5-0-2-2-2-2-5-5-5-5-0-0-0-0---------------2-2-2-2-5-5-5-5-0-0--

Intro X1
Verse X2
Chorus X1
Verse X2
Chorus X1
Bridge X1
Solo X1
Verse X1
Outro X1


This tab was created by Christian Mangs.
Comments