Green Day - Sassafras Roots Chords & Tabs

 

Sassafras Roots Chords & Tabs

Green Day Chords & Tabs

Version: 2 Type: Tab 0 ratings
1 star 2 stars 3 stars 4 stars 5 stars
comments

Sassafras Roots Tab

Intro

|----------------|
|----------------|
|-7--------------|
|-7----7----2----|
|-5----7----2----|
|------5----0----|

verse

|-------------------------------------|
|-------------------------------------|
|-----------9-7-6-7-7-7-7-7-----------|
|-7-7-7-7-7-9-7-6-7-7-7-7-7-2-2-2-2-2-|
|-7-7-7-7-7-7-5-4-5-5-5-5-5-2-2-2-2-2-|
|-5-5-5-5-5-----------------0-0-0-0-0-| x6

chorus

|-----------------------------------------------------------------------|
|-----------------------------------------------------------------------|
|-7-7-7-7-7-----------7-7-7-7-7-----------7-7-7-7-7---------------------|
|-7-7-7-7-7-2-2-2-2-2-7-7-7-7-7-2-2-2-2-2-7-7-7-7-7-7-7-7-7-7-2-2-2-2-2-|
|-5-5-5-5-5-2-2-2-2-2-5-5-5-5-5-2-2-2-2-2-5-5-5-5-5-7-7-7-7-7-2-2-2-2-2-|
|-----------0-0-0-0-0-----------0-0-0-0-0-----------5-5-5-5-5-0-0-0-0-0-|

verse

|-------------------------------------|
|-------------------------------------|
|-----------9-7-6-7-7-7-7-7-----------|
|-7-7-7-7-7-9-7-6-7-7-7-7-7-2-2-2-2-2-|
|-7-7-7-7-7-7-5-4-5-5-5-5-5-2-2-2-2-2-|
|-5-5-5-5-5-----------------0-0-0-0-0-| x6

chorus

|-----------------------------------------------------------------------|
|-----------------------------------------------------------------------|
|-7-7-7-7-7-----------7-7-7-7-7-----------7-7-7-7-7---------------------|
|-7-7-7-7-7-2-2-2-2-2-7-7-7-7-7-2-2-2-2-2-7-7-7-7-7-7-7-7-7-7-2-2-2-2-2-|
|-5-5-5-5-5-2-2-2-2-2-5-5-5-5-5-2-2-2-2-2-5-5-5-5-5-7-7-7-7-7-2-2-2-2-2-|
|-----------0-0-0-0-0-----------0-0-0-0-0-----------5-5-5-5-5-0-0-0-0-0-|
[ Tab from: http://www.guitartabs.cc/tabs/g/green_day/sassafras_roots_tab_ver_2.html ]
verse

|-------------------------------------|
|-------------------------------------|
|-----------9-7-6-7-7-7-7-7-----------|
|-7-7-7-7-7-9-7-6-7-7-7-7-7-2-2-2-2-2-|
|-7-7-7-7-7-7-5-4-5-5-5-5-5-2-2-2-2-2-|
|-5-5-5-5-5-----------------0-0-0-0-0-| x2

bridge

|-----------------------------------------------------------------------|
|-----------------------------------------------------------------------|
|-----------7-7-7-7-7-----------7-7-7-7-7-----------7-7-7-7-7-9-9-9-9-9-|
|-4-4-4-4-4-7-7-7-7-7-4-4-4-4-4-7-7-7-7-7-4-4-4-4-4-7-7-7-7-7-9-9-9-9-9-|
|-4-4-4-4-4-5-5-5-5-5-4-4-4-4-4-5-5-5-5-5-4-4-4-4-4-5-5-5-5-5-7-7-7-7-7-|
|-2-2-2-2-2-----------2-2-2-2-2-----------2-2-2-2-2---------------------|

verse

|-------------------------------------|
|-------------------------------------|
|-----------9-7-6-7-7-7-7-7-----------|
|-7-7-7-7-7-9-7-6-7-7-7-7-7-2-2-2-2-2-|
|-7-7-7-7-7-7-5-4-5-5-5-5-5-2-2-2-2-2-|
|-5-5-5-5-5-----------------0-0-0-0-0-| x2

chorus

|-----------------------------------------------------------------------|
|-----------------------------------------------------------------------|
|-7-7-7-7-7-----------7-7-7-7-7-----------7-7-7-7-7---------------------|
|-7-7-7-7-7-2-2-2-2-2-7-7-7-7-7-2-2-2-2-2-7-7-7-7-7-7-7-7-7-7-2-2-2-2-2-|
|-5-5-5-5-5-2-2-2-2-2-5-5-5-5-5-2-2-2-2-2-5-5-5-5-5-7-7-7-7-7-2-2-2-2-2-|
|-----------0-0-0-0-0-----------0-0-0-0-0-----------5-5-5-5-5-0-0-0-0-0-|

Outro
|----------------|
|----------------|
|-7--------------|
|-7----7----2----|
|-5----7----2----|
|------5----0----| x4 or 5
Comments