Green Day - Sassafras Roots Chords & Tabs

 

Sassafras Roots Chords & Tabs

Green Day Chords & Tabs

Version: 1 Type: Bass Tab 1 rating
1 star 2 stars 3 stars 4 stars 5 stars
comments

Sassafras Roots Bass Tab

Song: Sassafras Roots
Artist: Green Day
Album: Dookie

JAH, the person that tabbed this song before me was
pretty close but here the correct way. It looks
intimidating but sit down with it and the song and
youl get it.

Tuning: down half step (DGBA)

Intro
G:--------------
D:--------------
A:-5-----------
E:------5---0--

Verse
G:-----------------------------------------------------------------------------
D:---------------------------------------------7p6-----------9-----9/11\9--
A:-0---0---0-0-0-0---7--5--4-4--5--5-5--------5---7-7-----7-----------
E:-----------------------------------------------------------------------------

G:-----------------------------------------------------------------------
D:--------------------------------------------7p6-------7h9---7h9---
A:-0---0---0-0-0-0---7--5--4-4--5--5-5-------5--7------7---------
E:-----------------------------------------------------------------------
[ Tab from: http://www.guitartabs.cc/tabs/g/green_day/sassafras_roots_btab.html ]
Chorus
G:----------------------------------------------------------------
D:----------------------------------------------------6h7-6h7--(play fast)
A:--5 (repeat a lot)------5 (repeat alot)------5--------------
E:-------0 (repeat a lot)-----0 (repeat alot)------------------

G:-------------------------------------------------------
D:-------------------------------------------------------
A:-------------------------------------------------------
E:--5 (repeat a lot) --0-0--0-0-0-0---0--7-7-

Interlude
G:----------------------------------------------------------------------------------
D:----------------------------------------------------------------4-4--5-5--7-7--
A:---------------5-5--4-4--2-2--0-0--------------------5-5---------------------
E:--2-2-2-2-2-------------------------------2-2-2-2-2--------------------------

G:----------------------------------------------------------------------------
D:--------------------------------------------------------9---7---6---7-----
A:----------------5-5--4-4--2-2--0-0-----7-7-7-7---7--7---7---7---7--
E:--2-2-2-2-2--------------------------------------------------------------

Comments