Green Day - Rotting Chords & Tabs

 

Rotting Chords & Tabs

Green Day Chords & Tabs

Version: 1 Type: Tab 0 ratings
1 star 2 stars 3 stars 4 stars 5 stars
comments

Rotting Tab

   
Hey, here is Green Day's 'Rotting'. I'm not sure what it was released with but 
this is how it sounds on "Shenanigans" (BUY IT NOW!)I went to see them on Monday 
and they kick ass. I even met Tré & and he's TINY!

OK...

standard tuning (YEY!)

INTRO: Verse chords x1
during the song a second guitar picks up the chords, always missing the second note)
[ Tab from: http://www.guitartabs.cc/tabs/g/green_day/rotting_tab.html ]
VERSE:
   Cmaj                      Gmaj
e-------------------------------------------------------
B----------------------------12-12-12-12-12-12-12-12----
G--9--9--9--9--9--9--9--9----12-12-12-12-12-12-12-12----
D--10-10-10-10-10-10-10-10---12-12-12-12-12-12-12-12----
A--10-10-10-10-10-10-10-10---10-10-10-10-10-10-10-10----
E--8--8--8--8--8--8--8--8-------------------------------
  Fmaj                       Cmaj
e--------------------------------------------------------
B--10-10-10-10-10-10-10-10-------------------------------
G--10-10-10-10-10-10-10-10---9--9--9--9--9--9--9--9------
D--10-10-10-10-10-10-10-10---10-10-10-10-10-10-10-10-----
A--8--8--8--8--8--8--8--8----10-10-10-10-10-10-10-10-----
E----------------------------8--8--8--8--8--8--8--8------
   Fmaj                      Fm
e--------------------------------------------------------
B-10-10-10-10-10-10-10-10---9--9--9--9--9--9--9--9-------
G-10-10-10-10-10-10-10-10---10-10-10-10-10-10-10-10------
D-10-10-10-10-10-10-10-10---10-10-10-10-10-10-10-10------
A-8--8--8--8--8--8--8--8----8--8--8--8--8--8--8--8-------
E--------------------------------------------------------
  Whisper   are   you       dying     in      my   

  Cmaj 
e--------------------------------------------------------
B--------------------------------------------------------
G-9--9--9--9--9--9--9--9--9--9--9--9--9--9--9--9---------
D-10-10-10-10-10-10-10-10-10-10-10-10-10-10-10-10--------
A-10-10-10-10-10-10-10-10-10-10-10-10-10-10-10-10--------
E-8--8--8--8--8--8--8--8--8--8--8--8--8--8--8--8---------
  ear......

All that x2

Now you know that chords i'm not gonna spend amother hour tabbing out the rest
just use the above chords and the same rhythm.

CHORUS:
Fmaj          Cmaj   
Black rose of death
In my fist I clutch
Thorns shred my fingertips

    Fmaj       Gmaj
And drips toxic blood

OUTRO:
Fmaj            Fm          Cmaj
Whisper are you dying in my ear... x2 then

e--------------------------------
B--------------------------------
G-7-7--9-------------------------
D-6-6--10------------------------
A-6-6--10-let ring---------------
E-8-8--8-------------------------

Order: Intro
       Verse 1
       Chorus
       Verse 2
       Chorus
       Verse 1
       Outro

TA DA! All done, took 5x as long to tab as it did to figure out. Cool song, 
cool album. Feel free to post this tab anywhere is you think it's good or if 
you thing it's wrong GO DO IT YOURSELF!!!

GREEN DAY RULE!!!!!!!!!!!!
Sim
Comments