Green Day - Restless Heart Syndrome Chords & Tabs

 

Restless Heart Syndrome Chords & Tabs

Green Day Chords & Tabs

Version: 2 Type: Bass Tab 0 ratings
1 star 2 stars 3 stars 4 stars 5 stars
comments

Restless Heart Syndrome Bass Tab

   
-------------------------------------------------------------------------------
		       Restless Heart Syndrome-Green Day
-------------------------------------------------------------------------------

Tabbed By:Stjimmy34 
Tuning: Standard

Verse 2 x4               
G|---------------------------------------------------------------------------|
D|---------------------------------------------------------------------------|
A|-/10--10-8--8-7--7-6--6\5/-------------------------------------------------|
E|---------------------------------------------------------------------------|


Chorus is palm-muted
G|---------------------------------------------------------------------------|
D|---------------------------------------------------------------------------|
A|-------------------------(x2)--5x16----------------------------------------|
E|-8--8-6--6-5--5-4--4\3/----------------------------------------------------|

Verse 2 x8

Second Chorus is the same as the first
 
[ Tab from: http://www.guitartabs.cc/tabs/g/green_day/restless_heart_syndrome_btab_ver_2.html ]
Third Chorus
G|---------------------------------------------------------------------------|
D|---------------------------------------------------------------------------|
A|-10x8--8x8--7x4--3x4--8x4--5x4----10x8--8x8--7x4--3x4--8x4--5--------------|
E|---------------------------------------------------------------------------|


Guitar solo x4
G|---------------------------------------------------------------------------|
D|---------------------------------------------------------------------------|
A|-----------7x4-6-6-6-5-----------------------------------------------------|
E|-3x4--1x4------------------------------------------------------------------|


Fourth Chorus
G|-----------------------------------|---------------------------------------|
D|-----------------------------------|---------------------------------------|
A|----------7x4--3x4--8x4--5x4--(x2)-|-----------7x4--3x4--8x4--5x4--(x2)----|
E|-33--111---------------------------|-3x8--1x4------------------------------|


Outro (I'm not sure. It was hard to decipher)
G|-----------------8888----88--88-87-------|---------------------------------|
D|-5555----5555----xxxx----xx--xx-xx-------|--5--5--5--5--5------------------|
A|-xxxx----xxxx----6666----66--66-65--(x4)-|--x--x--x--x--x------------------|
E|-3333----3333----------------------------|--3--3--3--3--3------------------|


| /  slide up
| \  slide down
| h  hammer-on
| p  pull-off
| ~  vibrato
| +  harmonic
| x  Mute note
===============================================================================
Comments