Green Day - Rest Chords & Tabs

 

Rest Chords & Tabs

Green Day Chords & Tabs

Version: 4 Type: Tab 0 ratings
1 star 2 stars 3 stars 4 stars 5 stars
comments

Rest Tab

   
----------------------------------------------------------------------------
                            Rest - Green day
----------------------------------------------------------------------------
Tabbed by:Ash Ingham
Email:lesaz55@hotmail.com

Tuning:standard (E A D G B E)


< - played softer
> - played louder


intro

|----------------------------------------------------------|
|----------------------------------------------------------|
|-----<0->0----------<0->0----------<0->0----------0-----0-|
|---0-------0------0-------0------0-------0------0-----0---|
|----------------------------------------------------------|
|-3-----------3--3-----------3--3-----------3--1-----1-----|

verse

|------------------------------------------------------------|
|------------------------------------------------------------|
|-----<0->0----------<0->0----------<0->0----------<0->0-----|
|---0-------0------0-------0------0-------0------0-------0---|
|------------------------------------------------------------|
|-3-----------3--3-----------3--3-----------3--3-----------3-|
[ Tab from: http://www.guitartabs.cc/tabs/g/green_day/rest_tab_ver_4.html ]
 ------------------------------------------------------------|
 ------------------------------------------------------------|
 -----<0->0----------<0->0----------<0->0---------<0->0------|
 ---0-------0------0-------0------0-------0-----0-------0----|
 ------------------------------------------------------------|
 -1-----------1--1-----------1--3-----------3--3----------3--|

bridge

|------------------------------------------------------------|
|------------------------------------------------------------|
|-----<0->0----------<0->0----------<0->0----------<0->0-----|
|---0-------0------0-------0------0-------0------0-------0---|
|------------------------------------------------------------|
|-6-----------6--5-----------5--6-----------6--5-----------5-|

 --------------------------------------------------------------|
 --------------------------------------------------------------|
 -----<0->0----------<0->0----------<0->0-----------<0->0------|
 ---0-------0------0-------0------0-------0-------0-------0----|
 --------------------------------------------------------------|
 -6-----------6--5-----------5--8-----------8--10-----------10-|
Comments