Green Day - Redundant Chords & Tabs

 

Redundant Chords & Tabs

Green Day Chords & Tabs

Version: 1 Type: Tab 1 rating
1 star 2 stars 3 stars 4 stars 5 stars
comments

Redundant Tab

Green Day
Redundent
From Nimrod

Intro
|---------------------------------------------------------------
|-----2---------2---------2-------------------------------------
|--------2---------2---------2------------------4-4-4-4-4-4-4-4-
|-----------------------------------4-4-4-4-4-4-4-4-4-4-4-4-4-4-
|-----------------------------------4-4-4-4-4-4-2-2-2-2-2-2-2-2-
|-5---------4---------3---------2---2-2-2-2-2-2----------------- 
[ Tab from: http://www.guitartabs.cc/tabs/g/green_day/redundant_tab.html ]
|-----------------------------------------------
|-----------------------------------------------
|-7-7-7-7-7-7-7-7-------------------------9--9--
|-7-7-7-7-7-7-7-7-7-7-7-7-7-7-7-7-7-7-7-7-9--9--
|-5-5-5-5-5-5-5-5-7-7-7-7-7-7-7-7-7-7-7-7-7--7--
|-----------------5-5-5-5-5-5-5-5-5-5-5-5------- 
Main Riff
|---------------------------------------------------------------
|---------------------------------------------------------------
|-----------------7-7-7-7-7-7-7-7-------------7-----------------
|-7-7-7-7-7-7-7-7-7-7-7-7-7-7-7-7-7-7-7-7-7-7-7-7-7-7-7-7-7-7-7-
|-7-7-7-7-7-7-7-7-5-5-5-5-5-5-5-5-7-7-7-7-7-7-5-7-7-7-7-7-7-7-7-
|-5-5-5-5-5-5-5-5-----------------5-5-5-5-5-5---5-5-5-5-5-5-5-5-
|---------------------------------------------------------------
|---------------------------------------------------------------
|-----------------7-7-7-7-7-7-7-7------------------------------- 
|-7-7-7-7-7-7-7-7-7-7-7-7-7-7-7-7-2-2-2-2-2-2-2-2-2-2-2-2-5--5--
|-7-7-7-7-7-7-7-7-5-5-5-5-5-5-5-5-2-2-2-2-2-2-2-2-2-2-2-2-5--5--
|-5-5-5-5-5-5-5-5-----------------0-0-0-0-0-0-0-0-0-0-0-0-3--3-- 

Bridge
|---------------------------------------------------------------
|---------------------------------------------------------------
|-----------------7-7-7-7-7-7-7-7-------------7-----------------
|-7-7-7-7-7-7-7-7-7-7-7-7-7-7-7-7-7-7-7-7-7-7-7-7-7-7-7-7-7-7-7-
|-7-7-7-7-7-7-7-7-5-5-5-5-5-5-5-5-7-7-7-7-7-7-5-7-7-7-7-7-7-7-7-
|-5-5-5-5-5-5-5-5-----------------5-5-5-5-5-5---5-5-5-5-5-5-5-5- 
|-------------------------------------------------------------
|-------------------------------------------------------------
|-----------------4-4-4-4-4-4-4-4-----------------------5--5--
|-4-4-4-4-4-4-4-4-4-4-4-4-4-4-4-4-2-2-2-2-2-2-2-2-2-2-2-5--5--
|-4-4-4-4-4-4-4-4-2-2-2-2-2-2-2-2-2-2-2-2-2-2-2-2-2-2-2-3--3--
|-2-2-2-2-2-2-2-2-----------------0-0-0-0-0-0-0-0-0-0-0------- 

This is a prety easy song to play. I’m prety sure its correct. If
there are any corrections E-mail Me at BlueInferno_9890@hotmail.com

Comments