Green Day - Pulling Teeth Chords & Tabs

 

Pulling Teeth Chords & Tabs

Green Day Chords & Tabs

Version: 3 Type: Bass Tab 0 ratings
1 star 2 stars 3 stars 4 stars 5 stars
comments

Pulling Teeth Bass Tab

   
Song: Pulling Teeth
Artist: Green Day
Album: Dookie
Tabbed By: Scott Sherman
Tune: E to Eb

Intro X=Stop
G--------------------------------------------------------------X
D---4---4---2---2---4---4---2---2---4---4---2---2---4---4------X
A-22-222-200-000-022-222-200-000-022-222-200-000-022-222-222222X
E--------------------------------------------------------------X

Verse-2x
G--------------------------------------------------------------------|
D---------------------------4-242--------------4p2h4-----------------|
A--------0-00-0000-------2-2-----2-------0-00-0---------222----------|
E-0-00023---------0-00024---------0-00023-----------0-00---0-00-0000-|

Chorus
G--------------------------------------------------------------X
D--------------------------------------------------------------X
A-4444444444444444--7---7--7-6-4-044444444444444442222222222222X
E-----------------00--00-0-------------------------------------X

THEN Play Verse-2x, thenů
[ Tab from: http://www.guitartabs.cc/tabs/g/green_day/pulling_teeth_btab_ver_3.html ]
Chorus2
G------------------------------------------------------------------|
D------------------------------------------------------------------|
A-4444444444444444--7---7--7-6-4-044444444444444442222222200000000-|
E-----------------00--00-0-----------------------------------------|

Bridge
G---------------------------------->
D---4---4---2---2---4---4---2---2-->
A-22-222-200-000-022-222-200-000-0->
E---------------------------------->

>----------------------------------------------X
>---4---4---2---2---4---4---2---2---4---4------X
>-22-222-200-000-022-222-200-000-022-222-222222X
>----------------------------------------------X

Outro
G-----------------------------------------------------------|
D---------------------------4-242------------242------------|
A--------0-00-0000-------2-2-----2-------0-00---2---2-0-2---|
E-0-00023---------0-00024---------0-00023---------0-------0-|
END
Comments or corrections mail me at shermdog17@yahoo.com
Check out my band at www.geocities.com/thecause_ifanything/punk.html
Comments